  0
SECTION
  2
HEADER
  9
$ACADVER
  1
AC1015
  9
$ACADMAINTVER
 70
     6
  9
$DWGCODEPAGE
  3
ANSI_1252
  9
$INSBASE
 10
0.0
 20
0.0
 30
0.0
  9
$EXTMIN
 10
0.0
 20
0.0
 30
0.0
  9
$EXTMAX
 10
955.071411
 20
666.294067
 30
2.0
  9
$LIMMIN
 10
0.0
 20
0.0
  9
$LIMMAX
 10
420.0
 20
297.0
  9
$ORTHOMODE
 70
     0
  9
$REGENMODE
 70
     1
  9
$FILLMODE
 70
     1
  9
$QTEXTMODE
 70
     0
  9
$MIRRTEXT
 70
     1
  9
$LTSCALE
 40
1.0
  9
$ATTMODE
 70
     1
  9
$TEXTSIZE
 40
2.5
  9
$TRACEWID
 40
1.0
  9
$TEXTSTYLE
  7
Standard
  9
$CLAYER
  8
0
  9
$CELTYPE
  6
ByLayer
  9
$CECOLOR
 62
   256
  9
$CELTSCALE
 40
1.0
  9
$DISPSILH
 70
     0
  9
$DIMSCALE
 40
1.0
  9
$DIMASZ
 40
2.5
  9
$DIMEXO
 40
0.625
  9
$DIMDLI
 40
3.75
  9
$DIMRND
 40
0.0
  9
$DIMDLE
 40
0.0
  9
$DIMEXE
 40
1.25
  9
$DIMTP
 40
0.0
  9
$DIMTM
 40
0.0
  9
$DIMTXT
 40
2.5
  9
$DIMCEN
 40
2.5
  9
$DIMTSZ
 40
0.0
  9
$DIMTOL
 70
     0
  9
$DIMLIM
 70
     0
  9
$DIMTIH
 70
     0
  9
$DIMTOH
 70
     0
  9
$DIMSE1
 70
     0
  9
$DIMSE2
 70
     0
  9
$DIMTAD
 70
     1
  9
$DIMZIN
 70
     8
  9
$DIMBLK
  1

  9
$DIMASO
 70
     1
  9
$DIMSHO
 70
     1
  9
$DIMPOST
  1

  9
$DIMAPOST
  1

  9
$DIMALT
 70
     0
  9
$DIMALTD
 70
     3
  9
$DIMALTF
 40
0.03937
  9
$DIMLFAC
 40
1.0
  9
$DIMTOFL
 70
     1
  9
$DIMTVP
 40
0.0
  9
$DIMTIX
 70
     0
  9
$DIMSOXD
 70
     0
  9
$DIMSAH
 70
     0
  9
$DIMBLK1
  1

  9
$DIMBLK2
  1

  9
$DIMSTYLE
  2
Standard
  9
$DIMCLRD
 70
     0
  9
$DIMCLRE
 70
     0
  9
$DIMCLRT
 70
     0
  9
$DIMTFAC
 40
1.0
  9
$DIMGAP
 40
0.625
  9
$DIMJUST
 70
     0
  9
$DIMSD1
 70
     0
  9
$DIMSD2
 70
     0
  9
$DIMTOLJ
 70
     0
  9
$DIMTZIN
 70
     8
  9
$DIMALTZ
 70
     0
  9
$DIMALTTZ
 70
     0
  9
$DIMUPT
 70
     0
  9
$DIMDEC
 70
     2
  9
$DIMTDEC
 70
     2
  9
$DIMALTU
 70
     2
  9
$DIMALTTD
 70
     3
  9
$DIMTXSTY
  7
Standard
  9
$DIMAUNIT
 70
     0
  9
$DIMADEC
 70
     0
  9
$DIMALTRND
 40
0.0
  9
$DIMAZIN
 70
     0
  9
$DIMDSEP
 70
    44
  9
$DIMATFIT
 70
     0
  9
$DIMFRAC
 70
     0
  9
$DIMLDRBLK
  1

  9
$DIMLUNIT
 70
     2
  9
$DIMLWD
 70
    -2
  9
$DIMLWE
 70
    -2
  9
$DIMTMOVE
 70
     0
  9
$LUNITS
 70
     2
  9
$LUPREC
 70
     4
  9
$SKETCHINC
 40
1.0
  9
$FILLETRAD
 40
2.5
  9
$AUNITS
 70
     0
  9
$AUPREC
 70
     0
  9
$MENU
  1
.
  9
$ELEVATION
 40
0.0
  9
$PELEVATION
 40
0.0
  9
$THICKNESS
 40
0.0
  9
$LIMCHECK
 70
     0
  9
$CHAMFERA
 40
2.5
  9
$CHAMFERB
 40
2.5
  9
$CHAMFERC
 40
0.0
  9
$CHAMFERD
 40
0.0
  9
$SKPOLY
 70
     0
  9
$TDCREATE
 40
2447893.125
  9
$TDUCREATE
 40
0.0
  9
$TDUPDATE
 40
2458227.449751863
  9
$TDUUPDATE
 40
2458227.324751863
  9
$TDINDWG
 40
0.0
  9
$TDUSRTIMER
 40
0.0
  9
$USRTIMER
 70
     1
  9
$ANGBASE
 50
0.0
  9
$ANGDIR
 70
     0
  9
$PDMODE
 70
     0
  9
$PDSIZE
 40
0.0
  9
$PLINEWID
 40
0.0
  9
$SPLFRAME
 70
     0
  9
$SPLINETYPE
 70
     6
  9
$SPLINESEGS
 70
     8
  9
$HANDSEED
  5
6DD
  9
$SURFTAB1
 70
     6
  9
$SURFTAB2
 70
     6
  9
$SURFTYPE
 70
     6
  9
$SURFU
 70
     6
  9
$SURFV
 70
     6
  9
$UCSBASE
  2

  9
$UCSNAME
  2

  9
$UCSORG
 10
0.0
 20
0.0
 30
0.0
  9
$UCSXDIR
 10
1.0
 20
0.0
 30
0.0
  9
$UCSYDIR
 10
0.0
 20
1.0
 30
0.0
  9
$UCSORTHOREF
  2

  9
$UCSORTHOVIEW
 70
     1
  9
$UCSORGTOP
 10
0.0
 20
0.0
 30
0.0
  9
$UCSORGBOTTOM
 10
0.0
 20
0.0
 30
0.0
  9
$UCSORGLEFT
 10
0.0
 20
0.0
 30
0.0
  9
$UCSORGRIGHT
 10
0.0
 20
0.0
 30
0.0
  9
$UCSORGFRONT
 10
0.0
 20
0.0
 30
0.0
  9
$UCSORGBACK
 10
0.0
 20
0.0
 30
0.0
  9
$PUCSBASE
  2

  9
$PUCSNAME
  2

  9
$PUCSORG
 10
0.0
 20
0.0
 30
0.0
  9
$PUCSXDIR
 10
1.0
 20
0.0
 30
0.0
  9
$PUCSYDIR
 10
0.0
 20
1.0
 30
0.0
  9
$PUCSORTHOREF
  2

  9
$PUCSORTHOVIEW
 70
     0
  9
$PUCSORGTOP
 10
0.0
 20
0.0
 30
0.0
  9
$PUCSORGBOTTOM
 10
0.0
 20
0.0
 30
0.0
  9
$PUCSORGLEFT
 10
0.0
 20
0.0
 30
0.0
  9
$PUCSORGRIGHT
 10
0.0
 20
0.0
 30
0.0
  9
$PUCSORGFRONT
 10
0.0
 20
0.0
 30
0.0
  9
$PUCSORGBACK
 10
0.0
 20
0.0
 30
0.0
  9
$USERI1
 70
     0
  9
$USERI2
 70
     0
  9
$USERI3
 70
     0
  9
$USERI4
 70
     0
  9
$USERI5
 70
     0
  9
$USERR1
 40
0.0
  9
$USERR2
 40
0.0
  9
$USERR3
 40
0.0
  9
$USERR4
 40
0.0
  9
$USERR5
 40
0.0
  9
$WORLDVIEW
 70
     1
  9
$SHADEDGE
 70
     3
  9
$SHADEDIF
 70
    70
  9
$TILEMODE
 70
     1
  9
$MAXACTVP
 70
    64
  9
$PINSBASE
 10
0.0
 20
0.0
 30
0.0
  9
$PLIMCHECK
 70
     0
  9
$PEXTMIN
 10
0.0
 20
0.0
 30
0.0
  9
$PEXTMAX
 10
955.071411
 20
666.294067
 30
2.0
  9
$PLIMMIN
 10
0.0
 20
0.0
  9
$PLIMMAX
 10
420.0
 20
297.0
  9
$UNITMODE
 70
     0
  9
$VISRETAIN
 70
     0
  9
$PLINEGEN
 70
     0
  9
$PSLTSCALE
 70
     1
  9
$TREEDEPTH
 70
  3020
  9
$CMLSTYLE
  2
Standard
  9
$CMLJUST
 70
     0
  9
$CMLSCALE
 40
20.0
  9
$PROXYGRAPHICS
 70
     1
  9
$MEASUREMENT
 70
     1
  9
$CELWEIGHT
370
    -1
  9
$ENDCAPS
280
     0
  9
$JOINSTYLE
280
     0
  9
$LWDISPLAY
290
     0
  9
$INSUNITS
 70
     0
  9
$HYPERLINKBASE
  1

  9
$STYLESHEET
  1

  9
$XEDIT
290
     1
  9
$CEPSNTYPE
380
     0
  9
$PSTYLEMODE
290
     0
  9
$FINGERPRINTGUID
  2
{230E4DDB-0376-4743-84D4-3D934A53A870}
  9
$VERSIONGUID
  2
{FAEB1C32-E019-11D5-929B-00C0DF256EC4}
  9
$EXTNAMES
290
     1
  9
$PSVPSCALE
 40
0.0
  9
$OLESTARTUP
290
     0
  0
ENDSEC
  0
SECTION
  2
CLASSES
  0
CLASS
  1
ACDBDICTIONARYWDFLT
  2
AcDbDictionaryWithDefault
  3
ObjectDBX Classes
 90
        0
280
     0
281
     0
  0
CLASS
  1
VISUALSTYLE
  2
AcDbVisualStyle
  3
ObjectDBX Classes
 90
     4095
280
     0
281
     0
  0
CLASS
  1
MATERIAL
  2
AcDbMaterial
  3
ObjectDBX Classes
 90
     1153
280
     0
281
     0
  0
CLASS
  1
SCALE
  2
AcDbScale
  3
ObjectDBX Classes
 90
     1153
280
     0
281
     0
  0
CLASS
  1
SUN
  2
AcDbSun
  3
SCENEOE
 90
     1153
280
     0
281
     0
  0
CLASS
  1
ACDBPLACEHOLDER
  2
AcDbPlaceHolder
  3
ObjectDBX Classes
 90
        0
280
     0
281
     0
  0
CLASS
  1
LAYOUT
  2
AcDbLayout
  3
ObjectDBX Classes
 90
        0
280
     0
281
     0
  0
ENDSEC
  0
SECTION
  2
TABLES
  0
TABLE
  2
VPORT
  5
8
330
0
100
AcDbSymbolTable
 70
     1
  0
VPORT
  5
29
330
8
100
AcDbSymbolTableRecord
100
AcDbViewportTableRecord
  2
*Active
 70
     0
 10
0.0
 20
0.0
 11
1.0
 21
1.0
 12
10.429907
 22
4.5
 13
0.0
 23
0.0
 14
0.5
 24
0.5
 15
0.5
 25
0.5
 16
0.0
 26
0.0
 36
1.0
 17
0.0
 27
0.0
 37
0.0
 40
9.0
 41
1.972973
 42
50.0
 43
0.0
 44
0.0
 50
0.0
 51
0.0
 71
     0
 72
   100
 73
     1
 74
     3
 75
     0
 76
     0
 77
     0
 78
     0
281
     0
 65
     1
110
0.0
120
0.0
130
0.0
111
1.0
121
0.0
131
0.0
112
0.0
122
1.0
132
0.0
 79
     0
146
0.0
  0
ENDTAB
  0
TABLE
  2
LTYPE
  5
5
330
0
100
AcDbSymbolTable
 70
     1
  0
LTYPE
  5
14
330
5
100
AcDbSymbolTableRecord
100
AcDbLinetypeTableRecord
  2
ByBlock
 70
     0
  3

 72
    65
 73
     0
 40
0.0
  0
LTYPE
  5
15
330
5
100
AcDbSymbolTableRecord
100
AcDbLinetypeTableRecord
  2
ByLayer
 70
     0
  3

 72
    65
 73
     0
 40
0.0
  0
LTYPE
  5
16
330
5
100
AcDbSymbolTableRecord
100
AcDbLinetypeTableRecord
  2
Continuous
 70
     0
  3
Solid line
 72
    65
 73
     0
 40
0.0
  0
ENDTAB
  0
TABLE
  2
LAYER
  5
2
330
0
100
AcDbSymbolTable
 70
     1
  0
LAYER
  5
10
330
2
100
AcDbSymbolTableRecord
100
AcDbLayerTableRecord
  2
0
 70
     0
 62
     7
  6
Continuous
370
    -3
390
F
  0
ENDTAB
  0
TABLE
  2
STYLE
  5
3
330
0
100
AcDbSymbolTable
 70
     1
  0
STYLE
  5
11
330
3
100
AcDbSymbolTableRecord
100
AcDbTextStyleTableRecord
  2
Standard
 70
     0
 40
0.0
 41
1.0
 50
0.0
 71
     0
 42
2.5
  3
txt
  4

  0
ENDTAB
  0
TABLE
  2
VIEW
  5
6
330
0
100
AcDbSymbolTable
 70
     0
  0
ENDTAB
  0
TABLE
  2
UCS
  5
7
330
0
100
AcDbSymbolTable
 70
     0
  0
ENDTAB
  0
TABLE
  2
APPID
  5
9
330
0
100
AcDbSymbolTable
 70
     1
  0
APPID
  5
12
330
9
100
AcDbSymbolTableRecord
100
AcDbRegAppTableRecord
  2
ACAD
 70
     0
  0
ENDTAB
  0
TABLE
  2
DIMSTYLE
  5
A
330
0
100
AcDbSymbolTable
 70
     1
100
AcDbDimStyleTable
  0
DIMSTYLE
105
27
330
A
100
AcDbSymbolTableRecord
100
AcDbDimStyleTableRecord
  2
Standard
 70
     0
178
     0
340
11
  0
ENDTAB
  0
TABLE
  2
BLOCK_RECORD
  5
1
330
0
100
AcDbSymbolTable
 70
     1
  0
BLOCK_RECORD
  5
1F
330
1
100
AcDbSymbolTableRecord
100
AcDbBlockTableRecord
  2
*Model_Space
340
22
  0
BLOCK_RECORD
  5
1B
330
1
100
AcDbSymbolTableRecord
100
AcDbBlockTableRecord
  2
*Paper_Space
340
1E
  0
BLOCK_RECORD
  5
23
330
1
100
AcDbSymbolTableRecord
100
AcDbBlockTableRecord
  2
*Paper_Space0
340
26
  0
ENDTAB
  0
ENDSEC
  0
SECTION
  2
BLOCKS
  0
BLOCK
  5
20
330
1F
100
AcDbEntity
  8
0
100
AcDbBlockBegin
  2
*Model_Space
 70
     0
 10
0.0
 20
0.0
 30
0.0
  3
*Model_Space
  1
*Model_Space
  0
ENDBLK
  5
21
330
1F
100
AcDbEntity
  8
0
100
AcDbBlockEnd
  0
BLOCK
  5
1C
330
1B
100
AcDbEntity
 67
     1
  8
0
100
AcDbBlockBegin
  2
*Paper_Space
 70
     0
 10
0.0
 20
0.0
 30
0.0
  3
*Paper_Space
  1
*Paper_Space
  0
ENDBLK
  5
1D
330
1B
100
AcDbEntity
 67
     1
  8
0
100
AcDbBlockEnd
  0
BLOCK
  5
24
330
23
100
AcDbEntity
  8
0
100
AcDbBlockBegin
  2
*Paper_Space0
 70
     0
 10
0.0
 20
0.0
 30
0.0
  3
*Paper_Space0
  1
*Paper_Space0
  0
ENDBLK
  5
25
330
23
100
AcDbEntity
  8
0
100
AcDbBlockEnd
  0
ENDSEC
  0
SECTION
  2
ENTITIES
  0
CIRCLE
  5
6A
330
1F
100
AcDbEntity
  8
0
 62
     7
370
    35
100
AcDbCircle
 10
364.106415
 20
287.701416
 30
0.0
 40
25.23093605041504
  0
POLYLINE
  5
6B
330
1F
100
AcDbEntity
  8
0
 62
     7
370
    70
100
AcDb2dPolyline
 66
     1
 10
0.0
 20
0.0
 30
0.0
  0
VERTEX
  5
6C
330
6B
100
AcDbEntity
  8
0
370
     0
100
AcDbVertex
100
AcDb2dVertex
 10
353.177368
 20
452.270569
 30
0.0
  0
VERTEX
  5
6D
330
6B
100
AcDbEntity
  8
0
370
     0
100
AcDbVertex
100
AcDb2dVertex
 10
342.338684
 20
452.270569
 30
0.0
  0
VERTEX
  5
6E
330
6B
100
AcDbEntity
  8
0
370
     0
100
AcDbVertex
100
AcDb2dVertex
 10
350.016083
 20
458.59314
 30
0.0
  0
VERTEX
  5
6F
330
6B
100
AcDbEntity
  8
0
370
     0
100
AcDbVertex
100
AcDb2dVertex
 10
351.596741
 20
460.399597
 30
0.0
  0
VERTEX
  5
70
330
6B
100
AcDbEntity
  8
0
370
     0
100
AcDbVertex
100
AcDb2dVertex
 10
352.27417
 20
461.754425
 30
0.0
  0
VERTEX
  5
71
330
6B
100
AcDbEntity
  8
0
370
     0
100
AcDbVertex
100
AcDb2dVertex
 10
352.27417
 20
463.109253
 30
0.0
  0
VERTEX
  5
72
330
6B
100
AcDbEntity
  8
0
370
     0
100
AcDbVertex
100
AcDb2dVertex
 10
351.596741
 20
464.689911
 30
0.0
  0
VERTEX
  5
73
330
6B
100
AcDbEntity
  8
0
370
     0
100
AcDbVertex
100
AcDb2dVertex
 10
350.919312
 20
465.59314
 30
0.0
  0
VERTEX
  5
74
330
6B
100
AcDbEntity
  8
0
370
     0
100
AcDbVertex
100
AcDb2dVertex
 10
349.338684
 20
466.270569
 30
0.0
  0
VERTEX
  5
75
330
6B
100
AcDbEntity
  8
0
370
     0
100
AcDbVertex
100
AcDb2dVertex
 10
346.628998
 20
466.270569
 30
0.0
  0
VERTEX
  5
76
330
6B
100
AcDbEntity
  8
0
370
     0
100
AcDbVertex
100
AcDb2dVertex
 10
345.04834
 20
465.59314
 30
0.0
  0
VERTEX
  5
77
330
6B
100
AcDbEntity
  8
0
370
     0
100
AcDbVertex
100
AcDb2dVertex
 10
344.370941
 20
464.91571
 30
0.0
  0
VERTEX
  5
78
330
6B
100
AcDbEntity
  8
0
370
     0
100
AcDbVertex
100
AcDb2dVertex
 10
343.467712
 20
463.560883
 30
0.0
  0
VERTEX
  5
79
330
6B
100
AcDbEntity
  8
0
370
     0
100
AcDbVertex
100
AcDb2dVertex
 10
343.467712
 20
462.883453
 30
0.0
  0
SEQEND
  5
7A
330
6B
100
AcDbEntity
  8
0
 62
     7
370
    70
  0
POLYLINE
  5
7B
330
1F
100
AcDbEntity
  8
0
 62
     7
370
    70
100
AcDb2dPolyline
 66
     1
 10
0.0
 20
0.0
 30
0.0
  0
VERTEX
  5
7C
330
7B
100
AcDbEntity
  8
0
370
     0
100
AcDbVertex
100
AcDb2dVertex
 10
358.687073
 20
454.754425
 30
0.0
  0
VERTEX
  5
7D
330
7B
100
AcDbEntity
  8
0
370
     0
100
AcDbVertex
100
AcDb2dVertex
 10
359.364471
 20
453.625397
 30
0.0
  0
VERTEX
  5
7E
330
7B
100
AcDbEntity
  8
0
370
     0
100
AcDbVertex
100
AcDb2dVertex
 10
360.041901
 20
452.947968
 30
0.0
  0
VERTEX
  5
7F
330
7B
100
AcDbEntity
  8
0
370
     0
100
AcDbVertex
100
AcDb2dVertex
 10
362.525757
 20
452.270569
 30
0.0
  0
VERTEX
  5
80
330
7B
100
AcDbEntity
  8
0
370
     0
100
AcDbVertex
100
AcDb2dVertex
 10
365.009644
 20
452.270569
 30
0.0
  0
VERTEX
  5
81
330
7B
100
AcDbEntity
  8
0
370
     0
100
AcDbVertex
100
AcDb2dVertex
 10
367.71933
 20
452.947968
 30
0.0
  0
VERTEX
  5
82
330
7B
100
AcDbEntity
  8
0
370
     0
100
AcDbVertex
100
AcDb2dVertex
 10
369.074158
 20
454.302795
 30
0.0
  0
VERTEX
  5
83
330
7B
100
AcDbEntity
  8
0
370
     0
100
AcDbVertex
100
AcDb2dVertex
 10
369.751587
 20
456.335083
 30
0.0
  0
VERTEX
  5
84
330
7B
100
AcDbEntity
  8
0
370
     0
100
AcDbVertex
100
AcDb2dVertex
 10
369.751587
 20
457.689911
 30
0.0
  0
VERTEX
  5
85
330
7B
100
AcDbEntity
  8
0
370
     0
100
AcDbVertex
100
AcDb2dVertex
 10
369.074158
 20
459.722168
 30
0.0
  0
VERTEX
  5
86
330
7B
100
AcDbEntity
  8
0
370
     0
100
AcDbVertex
100
AcDb2dVertex
 10
368.396729
 20
460.399597
 30
0.0
  0
VERTEX
  5
87
330
7B
100
AcDbEntity
  8
0
370
     0
100
AcDbVertex
100
AcDb2dVertex
 10
367.041901
 20
461.077026
 30
0.0
  0
VERTEX
  5
88
330
7B
100
AcDbEntity
  8
0
370
     0
100
AcDbVertex
100
AcDb2dVertex
 10
363.880615
 20
461.077026
 30
0.0
  0
VERTEX
  5
89
330
7B
100
AcDbEntity
  8
0
370
     0
100
AcDbVertex
100
AcDb2dVertex
 10
368.622528
 20
466.270569
 30
0.0
  0
VERTEX
  5
8A
330
7B
100
AcDbEntity
  8
0
370
     0
100
AcDbVertex
100
AcDb2dVertex
 10
360.2677
 20
466.270569
 30
0.0
  0
SEQEND
  5
8B
330
7B
100
AcDbEntity
  8
0
 62
     7
370
    70
  0
POLYLINE
  5
8C
330
1F
100
AcDbEntity
  8
0
 62
     7
370
    70
100
AcDb2dPolyline
 66
     1
 10
0.0
 20
0.0
 30
0.0
  0
VERTEX
  5
8D
330
8C
100
AcDbEntity
  8
0
370
     0
100
AcDbVertex
100
AcDb2dVertex
 10
378.648346
 20
466.270569
 30
0.0
  0
VERTEX
  5
8E
330
8C
100
AcDbEntity
  8
0
370
     0
100
AcDbVertex
100
AcDb2dVertex
 10
378.648346
 20
461.980225
 30
0.0
  0
SEQEND
  5
8F
330
8C
100
AcDbEntity
  8
0
 62
     7
370
    70
  0
POLYLINE
  5
90
330
1F
100
AcDbEntity
  8
0
 62
     7
370
    70
100
AcDb2dPolyline
 66
     1
 10
0.0
 20
0.0
 30
0.0
  0
VERTEX
  5
91
330
90
100
AcDbEntity
  8
0
370
     0
100
AcDbVertex
100
AcDb2dVertex
 10
383.16449
 20
466.270569
 30
0.0
  0
VERTEX
  5
92
330
90
100
AcDbEntity
  8
0
370
     0
100
AcDbVertex
100
AcDb2dVertex
 10
383.16449
 20
461.980225
 30
0.0
  0
SEQEND
  5
93
330
90
100
AcDbEntity
  8
0
 62
     7
370
    70
  0
LINE
  5
94
330
1F
100
AcDbEntity
  8
0
 62
     7
370
    35
100
AcDbLine
 10
217.606415
 20
345.201416
 30
0.0
 11
217.606415
 21
452.270569
 31
0.0
  0
LINE
  5
95
330
1F
100
AcDbEntity
  8
0
 62
     7
370
    35
100
AcDbLine
 10
510.606415
 20
345.201416
 30
0.0
 11
510.606415
 21
452.270569
 31
0.0
  0
POLYLINE
  5
96
330
1F
100
AcDbEntity
  8
0
 62
     7
370
    35
100
AcDb2dPolyline
 66
     1
 10
0.0
 20
0.0
 30
0.0
  0
VERTEX
  5
97
330
96
100
AcDbEntity
  8
0
370
     0
100
AcDbVertex
100
AcDb2dVertex
 10
508.674561
 20
449.75293
 30
0.0
  0
VERTEX
  5
98
330
96
100
AcDbEntity
  8
0
370
     0
100
AcDbVertex
100
AcDb2dVertex
 10
510.606415
 20
450.270569
 30
0.0
  0
VERTEX
  5
99
330
96
100
AcDbEntity
  8
0
370
     0
100
AcDbVertex
100
AcDb2dVertex
 10
508.674561
 20
450.788208
 30
0.0
  0
SEQEND
  5
9A
330
96
100
AcDbEntity
  8
0
 62
     7
370
    35
  0
POLYLINE
  5
9B
330
1F
100
AcDbEntity
  8
0
 62
     7
370
    35
100
AcDb2dPolyline
 66
     1
 10
0.0
 20
0.0
 30
0.0
  0
VERTEX
  5
9C
330
9B
100
AcDbEntity
  8
0
370
     0
100
AcDbVertex
100
AcDb2dVertex
 10
219.538269
 20
450.788208
 30
0.0
  0
VERTEX
  5
9D
330
9B
100
AcDbEntity
  8
0
370
     0
100
AcDbVertex
100
AcDb2dVertex
 10
217.606415
 20
450.270569
 30
0.0
  0
VERTEX
  5
9E
330
9B
100
AcDbEntity
  8
0
370
     0
100
AcDbVertex
100
AcDb2dVertex
 10
219.538269
 20
449.75293
 30
0.0
  0
SEQEND
  5
9F
330
9B
100
AcDbEntity
  8
0
 62
     7
370
    35
  0
LINE
  5
A0
330
1F
100
AcDbEntity
  8
0
 62
     7
370
    35
100
AcDbLine
 10
217.606415
 20
450.270569
 30
0.0
 11
510.606415
 21
450.270569
 31
0.0
  0
POLYLINE
  5
A1
330
1F
100
AcDbEntity
  8
0
 62
     7
370
    70
100
AcDb2dPolyline
 66
     1
 10
0.0
 20
0.0
 30
0.0
  0
VERTEX
  5
A2
330
A1
100
AcDbEntity
  8
0
370
     0
100
AcDbVertex
100
AcDb2dVertex
 10
410.69751
 20
344.840851
 30
0.0
  0
VERTEX
  5
A3
330
A1
100
AcDbEntity
  8
0
370
     0
100
AcDbVertex
100
AcDb2dVertex
 10
408.535828
 20
346.239288
 30
0.0
  0
VERTEX
  5
A4
330
A1
100
AcDbEntity
  8
0
370
     0
100
AcDbVertex
100
AcDb2dVertex
 10
406.454498
 20
346.194092
 30
0.0
  0
VERTEX
  5
A5
330
A1
100
AcDbEntity
  8
0
370
     0
100
AcDbVertex
100
AcDb2dVertex
 10
404.152222
 20
345.041687
 30
0.0
  0
VERTEX
  5
A6
330
A1
100
AcDbEntity
  8
0
370
     0
100
AcDbVertex
100
AcDb2dVertex
 10
403.647583
 20
344.589752
 30
0.0
  0
VERTEX
  5
A7
330
A1
100
AcDbEntity
  8
0
370
     0
100
AcDbVertex
100
AcDb2dVertex
 10
402.249146
 20
342.42807
 30
0.0
  0
VERTEX
  5
A8
330
A1
100
AcDbEntity
  8
0
370
     0
100
AcDbVertex
100
AcDb2dVertex
 10
401.975494
 20
340.364288
 30
0.0
  0
VERTEX
  5
A9
330
A1
100
AcDbEntity
  8
0
370
     0
100
AcDbVertex
100
AcDb2dVertex
 10
402.675964
 20
338.56665
 30
0.0
  0
VERTEX
  5
AA
330
A1
100
AcDbEntity
  8
0
370
     0
100
AcDbVertex
100
AcDb2dVertex
 10
403.127899
 20
338.062012
 30
0.0
  0
VERTEX
  5
AB
330
A1
100
AcDbEntity
  8
0
370
     0
100
AcDbVertex
100
AcDb2dVertex
 10
404.837646
 20
337.168213
 30
0.0
  0
VERTEX
  5
AC
330
A1
100
AcDbEntity
  8
0
370
     0
100
AcDbVertex
100
AcDb2dVertex
 10
406.919006
 20
337.21344
 30
0.0
  0
VERTEX
  5
AD
330
A1
100
AcDbEntity
  8
0
370
     0
100
AcDbVertex
100
AcDb2dVertex
 10
409.371918
 20
338.197632
 30
0.0
  0
VERTEX
  5
AE
330
A1
100
AcDbEntity
  8
0
370
     0
100
AcDbVertex
100
AcDb2dVertex
 10
409.876556
 20
338.649536
 30
0.0
  0
VERTEX
  5
AF
330
A1
100
AcDbEntity
  8
0
370
     0
100
AcDbVertex
100
AcDb2dVertex
 10
411.274994
 20
340.811218
 30
0.0
  0
VERTEX
  5
B0
330
A1
100
AcDbEntity
  8
0
370
     0
100
AcDbVertex
100
AcDb2dVertex
 10
411.548645
 20
342.875
 30
0.0
  0
VERTEX
  5
B1
330
A1
100
AcDbEntity
  8
0
370
     0
100
AcDbVertex
100
AcDb2dVertex
 10
410.69751
 20
344.840851
 30
0.0
  0
VERTEX
  5
B2
330
A1
100
AcDbEntity
  8
0
370
     0
100
AcDbVertex
100
AcDb2dVertex
 10
412.806488
 20
342.48584
 30
0.0
  0
VERTEX
  5
B3
330
A1
100
AcDbEntity
  8
0
370
     0
100
AcDbVertex
100
AcDb2dVertex
 10
414.410828
 20
339.678925
 30
0.0
  0
VERTEX
  5
B4
330
A1
100
AcDbEntity
  8
0
370
     0
100
AcDbVertex
100
AcDb2dVertex
 10
414.890381
 20
336.774109
 30
0.0
  0
VERTEX
  5
B5
330
A1
100
AcDbEntity
  8
0
370
     0
100
AcDbVertex
100
AcDb2dVertex
 10
413.491943
 20
334.612396
 30
0.0
  0
VERTEX
  5
B6
330
A1
100
AcDbEntity
  8
0
370
     0
100
AcDbVertex
100
AcDb2dVertex
 10
412.314453
 20
333.557922
 30
0.0
  0
VERTEX
  5
B7
330
A1
100
AcDbEntity
  8
0
370
     0
100
AcDbVertex
100
AcDb2dVertex
 10
410.180359
 20
332.556152
 30
0.0
  0
VERTEX
  5
B8
330
A1
100
AcDbEntity
  8
0
370
     0
100
AcDbVertex
100
AcDb2dVertex
 10
408.603668
 20
332.962891
 30
0.0
  0
SEQEND
  5
B9
330
A1
100
AcDbEntity
  8
0
 62
     7
370
    70
  0
POLYLINE
  5
BA
330
1F
100
AcDbEntity
  8
0
 62
     7
370
    70
100
AcDb2dPolyline
 66
     1
 10
0.0
 20
0.0
 30
0.0
 70
     1
  0
VERTEX
  5
BB
330
BA
100
AcDbEntity
  8
0
370
     0
100
AcDbVertex
100
AcDb2dVertex
 10
415.658051
 20
355.34549
 30
0.0
  0
VERTEX
  5
BC
330
BA
100
AcDbEntity
  8
0
370
     0
100
AcDbVertex
100
AcDb2dVertex
 10
414.259613
 20
353.183807
 30
0.0
  0
VERTEX
  5
BD
330
BA
100
AcDbEntity
  8
0
370
     0
100
AcDbVertex
100
AcDb2dVertex
 10
414.588531
 20
350.447174
 30
0.0
  0
VERTEX
  5
BE
330
BA
100
AcDbEntity
  8
0
370
     0
100
AcDbVertex
100
AcDb2dVertex
 10
415.590271
 20
348.31311
 30
0.0
  0
VERTEX
  5
BF
330
BA
100
AcDbEntity
  8
0
370
     0
100
AcDbVertex
100
AcDb2dVertex
 10
417.548615
 20
346.126343
 30
0.0
  0
VERTEX
  5
C0
330
BA
100
AcDbEntity
  8
0
370
     0
100
AcDbVertex
100
AcDb2dVertex
 10
420.011597
 20
344.391479
 30
0.0
  0
VERTEX
  5
C1
330
BA
100
AcDbEntity
  8
0
370
     0
100
AcDbVertex
100
AcDb2dVertex
 10
422.695496
 20
343.763824
 30
0.0
  0
VERTEX
  5
C2
330
BA
100
AcDbEntity
  8
0
370
     0
100
AcDbVertex
100
AcDb2dVertex
 10
424.997772
 20
344.916229
 30
0.0
  0
VERTEX
  5
C3
330
BA
100
AcDbEntity
  8
0
370
     0
100
AcDbVertex
100
AcDb2dVertex
 10
426.343475
 20
346.121368
 30
0.0
  0
VERTEX
  5
C4
330
BA
100
AcDbEntity
  8
0
370
     0
100
AcDbVertex
100
AcDb2dVertex
 10
427.741913
 20
348.283051
 30
0.0
  0
VERTEX
  5
C5
330
BA
100
AcDbEntity
  8
0
370
     0
100
AcDbVertex
100
AcDb2dVertex
 10
427.412994
 20
351.019684
 30
0.0
  0
VERTEX
  5
C6
330
BA
100
AcDbEntity
  8
0
370
     0
100
AcDbVertex
100
AcDb2dVertex
 10
426.109955
 20
353.490173
 30
0.0
  0
VERTEX
  5
C7
330
BA
100
AcDbEntity
  8
0
370
     0
100
AcDbVertex
100
AcDb2dVertex
 10
424.000977
 20
355.845154
 30
0.0
  0
VERTEX
  5
C8
330
BA
100
AcDbEntity
  8
0
370
     0
100
AcDbVertex
100
AcDb2dVertex
 10
421.989929
 20
357.075378
 30
0.0
  0
VERTEX
  5
C9
330
BA
100
AcDbEntity
  8
0
370
     0
100
AcDbVertex
100
AcDb2dVertex
 10
419.30603
 20
357.703033
 30
0.0
  0
VERTEX
  5
CA
330
BA
100
AcDbEntity
  8
0
370
     0
100
AcDbVertex
100
AcDb2dVertex
 10
417.003754
 20
356.550629
 30
0.0
  0
SEQEND
  5
CB
330
BA
100
AcDbEntity
  8
0
 62
     7
370
    70
  0
POLYLINE
  5
CC
330
1F
100
AcDbEntity
  8
0
 62
     7
370
    70
100
AcDb2dPolyline
 66
     1
 10
0.0
 20
0.0
 30
0.0
  0
VERTEX
  5
CD
330
CC
100
AcDbEntity
  8
0
370
     0
100
AcDbVertex
100
AcDb2dVertex
 10
402.833588
 20
325.067535
 30
0.0
  0
VERTEX
  5
CE
330
CC
100
AcDbEntity
  8
0
370
     0
100
AcDbVertex
100
AcDb2dVertex
 10
395.579712
 20
337.364746
 30
0.0
  0
SEQEND
  5
CF
330
CC
100
AcDbEntity
  8
0
 62
     7
370
    70
  0
POLYLINE
  5
D0
330
1F
100
AcDbEntity
  8
0
 62
     7
370
    70
100
AcDb2dPolyline
 66
     1
 10
0.0
 20
0.0
 30
0.0
 70
     1
  0
VERTEX
  5
D1
330
D0
100
AcDbEntity
  8
0
370
     0
100
AcDbVertex
100
AcDb2dVertex
 10
403.030701
 20
334.640686
 30
0.0
  0
VERTEX
  5
D2
330
D0
100
AcDbEntity
  8
0
370
     0
100
AcDbVertex
100
AcDb2dVertex
 10
402.719391
 20
334.988342
 30
0.0
  0
VERTEX
  5
D3
330
D0
100
AcDbEntity
  8
0
370
     0
100
AcDbVertex
100
AcDb2dVertex
 10
401.922913
 20
335.527954
 30
0.0
  0
VERTEX
  5
D4
330
D0
100
AcDbEntity
  8
0
370
     0
100
AcDbVertex
100
AcDb2dVertex
 10
401.282104
 20
335.893768
 30
0.0
  0
VERTEX
  5
D5
330
D0
100
AcDbEntity
  8
0
370
     0
100
AcDbVertex
100
AcDb2dVertex
 10
400.796967
 20
336.085754
 30
0.0
  0
VERTEX
  5
D6
330
D0
100
AcDbEntity
  8
0
370
     0
100
AcDbVertex
100
AcDb2dVertex
 10
399.98233
 20
336.295898
 30
0.0
  0
VERTEX
  5
D7
330
D0
100
AcDbEntity
  8
0
370
     0
100
AcDbVertex
100
AcDb2dVertex
 10
398.993896
 20
336.350342
 30
0.0
  0
VERTEX
  5
D8
330
D0
100
AcDbEntity
  8
0
370
     0
100
AcDbVertex
100
AcDb2dVertex
 10
398.161102
 20
336.231018
 30
0.0
  0
VERTEX
  5
D9
330
D0
100
AcDbEntity
  8
0
370
     0
100
AcDbVertex
100
AcDb2dVertex
 10
397.657806
 20
336.093506
 30
0.0
  0
VERTEX
  5
DA
330
D0
100
AcDbEntity
  8
0
370
     0
100
AcDbVertex
100
AcDb2dVertex
 10
396.980682
 20
335.800354
 30
0.0
  0
VERTEX
  5
DB
330
D0
100
AcDbEntity
  8
0
370
     0
100
AcDbVertex
100
AcDb2dVertex
 10
396.12973
 20
335.351532
 30
0.0
  0
VERTEX
  5
DC
330
D0
100
AcDbEntity
  8
0
370
     0
100
AcDbVertex
100
AcDb2dVertex
 10
395.782074
 20
335.040192
 30
0.0
  0
VERTEX
  5
DD
330
D0
100
AcDbEntity
  8
0
370
     0
100
AcDbVertex
100
AcDb2dVertex
 10
395.434448
 20
334.728882
 30
0.0
  0
VERTEX
  5
DE
330
D0
100
AcDbEntity
  8
0
370
     0
100
AcDbVertex
100
AcDb2dVertex
 10
394.894806
 20
333.932404
 30
0.0
  0
VERTEX
  5
DF
330
D0
100
AcDbEntity
  8
0
370
     0
100
AcDbVertex
100
AcDb2dVertex
 10
394.529022
 20
333.291595
 30
0.0
  0
VERTEX
  5
E0
330
D0
100
AcDbEntity
  8
0
370
     0
100
AcDbVertex
100
AcDb2dVertex
 10
394.337036
 20
332.806458
 30
0.0
  0
VERTEX
  5
E1
330
D0
100
AcDbEntity
  8
0
370
     0
100
AcDbVertex
100
AcDb2dVertex
 10
394.126892
 20
331.991821
 30
0.0
  0
VERTEX
  5
E2
330
D0
100
AcDbEntity
  8
0
370
     0
100
AcDbVertex
100
AcDb2dVertex
 10
394.072418
 20
331.003357
 30
0.0
  0
VERTEX
  5
E3
330
D0
100
AcDbEntity
  8
0
370
     0
100
AcDbVertex
100
AcDb2dVertex
 10
394.191772
 20
330.170593
 30
0.0
  0
VERTEX
  5
E4
330
D0
100
AcDbEntity
  8
0
370
     0
100
AcDbVertex
100
AcDb2dVertex
 10
394.329285
 20
329.667297
 30
0.0
  0
VERTEX
  5
E5
330
D0
100
AcDbEntity
  8
0
370
     0
100
AcDbVertex
100
AcDb2dVertex
 10
394.622437
 20
328.990173
 30
0.0
  0
VERTEX
  5
E6
330
D0
100
AcDbEntity
  8
0
370
     0
100
AcDbVertex
100
AcDb2dVertex
 10
395.071259
 20
328.139221
 30
0.0
  0
VERTEX
  5
E7
330
D0
100
AcDbEntity
  8
0
370
     0
100
AcDbVertex
100
AcDb2dVertex
 10
395.382599
 20
327.791565
 30
0.0
  0
VERTEX
  5
E8
330
D0
100
AcDbEntity
  8
0
370
     0
100
AcDbVertex
100
AcDb2dVertex
 10
395.693909
 20
327.443909
 30
0.0
  0
VERTEX
  5
E9
330
D0
100
AcDbEntity
  8
0
370
     0
100
AcDbVertex
100
AcDb2dVertex
 10
396.490387
 20
326.904297
 30
0.0
  0
VERTEX
  5
EA
330
D0
100
AcDbEntity
  8
0
370
     0
100
AcDbVertex
100
AcDb2dVertex
 10
397.131195
 20
326.538513
 30
0.0
  0
VERTEX
  5
EB
330
D0
100
AcDbEntity
  8
0
370
     0
100
AcDbVertex
100
AcDb2dVertex
 10
397.616333
 20
326.346527
 30
0.0
  0
VERTEX
  5
EC
330
D0
100
AcDbEntity
  8
0
370
     0
100
AcDbVertex
100
AcDb2dVertex
 10
398.430969
 20
326.136383
 30
0.0
  0
VERTEX
  5
ED
330
D0
100
AcDbEntity
  8
0
370
     0
100
AcDbVertex
100
AcDb2dVertex
 10
399.419403
 20
326.081909
 30
0.0
  0
VERTEX
  5
EE
330
D0
100
AcDbEntity
  8
0
370
     0
100
AcDbVertex
100
AcDb2dVertex
 10
400.252197
 20
326.201233
 30
0.0
  0
VERTEX
  5
EF
330
D0
100
AcDbEntity
  8
0
370
     0
100
AcDbVertex
100
AcDb2dVertex
 10
400.755493
 20
326.338745
 30
0.0
  0
VERTEX
  5
F0
330
D0
100
AcDbEntity
  8
0
370
     0
100
AcDbVertex
100
AcDb2dVertex
 10
401.432617
 20
326.631927
 30
0.0
  0
VERTEX
  5
F1
330
D0
100
AcDbEntity
  8
0
370
     0
100
AcDbVertex
100
AcDb2dVertex
 10
402.283569
 20
327.08075
 30
0.0
  0
VERTEX
  5
F2
330
D0
100
AcDbEntity
  8
0
370
     0
100
AcDbVertex
100
AcDb2dVertex
 10
402.631226
 20
327.392059
 30
0.0
  0
VERTEX
  5
F3
330
D0
100
AcDbEntity
  8
0
370
     0
100
AcDbVertex
100
AcDb2dVertex
 10
402.978851
 20
327.7034
 30
0.0
  0
VERTEX
  5
F4
330
D0
100
AcDbEntity
  8
0
370
     0
100
AcDbVertex
100
AcDb2dVertex
 10
403.518494
 20
328.499847
 30
0.0
  0
VERTEX
  5
F5
330
D0
100
AcDbEntity
  8
0
370
     0
100
AcDbVertex
100
AcDb2dVertex
 10
403.884277
 20
329.140686
 30
0.0
  0
VERTEX
  5
F6
330
D0
100
AcDbEntity
  8
0
370
     0
100
AcDbVertex
100
AcDb2dVertex
 10
404.076263
 20
329.625824
 30
0.0
  0
VERTEX
  5
F7
330
D0
100
AcDbEntity
  8
0
370
     0
100
AcDbVertex
100
AcDb2dVertex
 10
404.286407
 20
330.44043
 30
0.0
  0
VERTEX
  5
F8
330
D0
100
AcDbEntity
  8
0
370
     0
100
AcDbVertex
100
AcDb2dVertex
 10
404.340881
 20
331.428894
 30
0.0
  0
VERTEX
  5
F9
330
D0
100
AcDbEntity
  8
0
370
     0
100
AcDbVertex
100
AcDb2dVertex
 10
404.221527
 20
332.261688
 30
0.0
  0
VERTEX
  5
FA
330
D0
100
AcDbEntity
  8
0
370
     0
100
AcDbVertex
100
AcDb2dVertex
 10
404.084045
 20
332.764984
 30
0.0
  0
VERTEX
  5
FB
330
D0
100
AcDbEntity
  8
0
370
     0
100
AcDbVertex
100
AcDb2dVertex
 10
403.790863
 20
333.442108
 30
0.0
  0
VERTEX
  5
FC
330
D0
100
AcDbEntity
  8
0
370
     0
100
AcDbVertex
100
AcDb2dVertex
 10
403.342041
 20
334.29306
 30
0.0
  0
SEQEND
  5
FD
330
D0
100
AcDbEntity
  8
0
 62
     7
370
    70
  0
ARC
  5
FE
330
1F
100
AcDbEntity
  8
0
 62
     7
370
    35
100
AcDbCircle
 10
364.106415
 20
287.701416
 30
0.0
 40
22.5
100
AcDbArc
 50
216.752464
 51
264.907026
  0
POLYLINE
  5
FF
330
1F
100
AcDbEntity
  8
0
 62
     7
370
    35
100
AcDb2dPolyline
 66
     1
 10
0.0
 20
0.0
 30
0.0
  0
VERTEX
  5
100
330
FF
100
AcDbEntity
  8
0
370
     0
100
AcDbVertex
100
AcDb2dVertex
 10
348.438904
 20
274.36554
 30
0.0
  0
VERTEX
  5
101
330
FF
100
AcDbEntity
  8
0
370
     0
100
AcDbVertex
100
AcDb2dVertex
 10
347.345093
 20
272.691132
 30
0.0
  0
VERTEX
  5
102
330
FF
100
AcDbEntity
  8
0
370
     0
100
AcDbVertex
100
AcDb2dVertex
 10
349.129547
 20
273.59433
 30
0.0
  0
SEQEND
  5
103
330
FF
100
AcDbEntity
  8
0
 62
     7
370
    35
  0
POLYLINE
  5
104
330
1F
100
AcDbEntity
  8
0
 62
     7
370
    35
100
AcDb2dPolyline
 66
     1
 10
0.0
 20
0.0
 30
0.0
  0
VERTEX
  5
105
330
104
100
AcDbEntity
  8
0
370
     0
100
AcDbVertex
100
AcDb2dVertex
 10
379.773926
 20
301.037292
 30
0.0
  0
VERTEX
  5
106
330
104
100
AcDbEntity
  8
0
370
     0
100
AcDbVertex
100
AcDb2dVertex
 10
380.867737
 20
302.7117
 30
0.0
  0
VERTEX
  5
107
330
104
100
AcDbEntity
  8
0
370
     0
100
AcDbVertex
100
AcDb2dVertex
 10
379.083282
 20
301.808502
 30
0.0
  0
SEQEND
  5
108
330
104
100
AcDbEntity
  8
0
 62
     7
370
    35
  0
LINE
  5
109
330
1F
100
AcDbEntity
  8
0
 62
     7
370
    35
100
AcDbLine
 10
347.345093
 20
272.691132
 30
0.0
 11
432.0513
 21
348.548126
 31
0.0
  0
POLYLINE
  5
10A
330
1F
100
AcDbEntity
  8
0
 62
     7
370
    70
100
AcDb2dPolyline
 66
     1
 10
0.0
 20
0.0
 30
0.0
  0
VERTEX
  5
10B
330
10A
100
AcDbEntity
  8
0
370
     0
100
AcDbVertex
100
AcDb2dVertex
 10
320.480591
 20
421.82666
 30
0.0
  0
VERTEX
  5
10C
330
10A
100
AcDbEntity
  8
0
370
     0
100
AcDbVertex
100
AcDb2dVertex
 10
309.641907
 20
421.82666
 30
0.0
  0
VERTEX
  5
10D
330
10A
100
AcDbEntity
  8
0
370
     0
100
AcDbVertex
100
AcDb2dVertex
 10
317.319305
 20
428.149261
 30
0.0
  0
VERTEX
  5
10E
330
10A
100
AcDbEntity
  8
0
370
     0
100
AcDbVertex
100
AcDb2dVertex
 10
318.899963
 20
429.955688
 30
0.0
  0
VERTEX
  5
10F
330
10A
100
AcDbEntity
  8
0
370
     0
100
AcDbVertex
100
AcDb2dVertex
 10
319.577393
 20
431.310547
 30
0.0
  0
VERTEX
  5
110
330
10A
100
AcDbEntity
  8
0
370
     0
100
AcDbVertex
100
AcDb2dVertex
 10
319.577393
 20
432.665405
 30
0.0
  0
VERTEX
  5
111
330
10A
100
AcDbEntity
  8
0
370
     0
100
AcDbVertex
100
AcDb2dVertex
 10
318.899963
 20
434.246033
 30
0.0
  0
VERTEX
  5
112
330
10A
100
AcDbEntity
  8
0
370
     0
100
AcDbVertex
100
AcDb2dVertex
 10
318.222534
 20
435.149261
 30
0.0
  0
VERTEX
  5
113
330
10A
100
AcDbEntity
  8
0
370
     0
100
AcDbVertex
100
AcDb2dVertex
 10
316.641907
 20
435.82666
 30
0.0
  0
VERTEX
  5
114
330
10A
100
AcDbEntity
  8
0
370
     0
100
AcDbVertex
100
AcDb2dVertex
 10
313.93222
 20
435.82666
 30
0.0
  0
VERTEX
  5
115
330
10A
100
AcDbEntity
  8
0
370
     0
100
AcDbVertex
100
AcDb2dVertex
 10
312.351562
 20
435.149261
 30
0.0
  0
VERTEX
  5
116
330
10A
100
AcDbEntity
  8
0
370
     0
100
AcDbVertex
100
AcDb2dVertex
 10
311.674164
 20
434.471832
 30
0.0
  0
VERTEX
  5
117
330
10A
100
AcDbEntity
  8
0
370
     0
100
AcDbVertex
100
AcDb2dVertex
 10
310.770935
 20
433.117004
 30
0.0
  0
VERTEX
  5
118
330
10A
100
AcDbEntity
  8
0
370
     0
100
AcDbVertex
100
AcDb2dVertex
 10
310.770935
 20
432.439575
 30
0.0
  0
SEQEND
  5
119
330
10A
100
AcDbEntity
  8
0
 62
     7
370
    70
  0
POLYLINE
  5
11A
330
1F
100
AcDbEntity
  8
0
 62
     7
370
    70
100
AcDb2dPolyline
 66
     1
 10
0.0
 20
0.0
 30
0.0
  0
VERTEX
  5
11B
330
11A
100
AcDbEntity
  8
0
370
     0
100
AcDbVertex
100
AcDb2dVertex
 10
329.37738
 20
434.020203
 30
0.0
  0
VERTEX
  5
11C
330
11A
100
AcDbEntity
  8
0
370
     0
100
AcDbVertex
100
AcDb2dVertex
 10
331.861267
 20
435.82666
 30
0.0
  0
VERTEX
  5
11D
330
11A
100
AcDbEntity
  8
0
370
     0
100
AcDbVertex
100
AcDb2dVertex
 10
331.861267
 20
421.82666
 30
0.0
  0
SEQEND
  5
11E
330
11A
100
AcDbEntity
  8
0
 62
     7
370
    70
  0
POLYLINE
  5
11F
330
1F
100
AcDbEntity
  8
0
 62
     7
370
    70
100
AcDb2dPolyline
 66
     1
 10
0.0
 20
0.0
 30
0.0
  0
VERTEX
  5
120
330
11F
100
AcDbEntity
  8
0
370
     0
100
AcDbVertex
100
AcDb2dVertex
 10
328.022552
 20
433.342804
 30
0.0
  0
VERTEX
  5
121
330
11F
100
AcDbEntity
  8
0
370
     0
100
AcDbVertex
100
AcDb2dVertex
 10
329.37738
 20
434.020203
 30
0.0
  0
SEQEND
  5
122
330
11F
100
AcDbEntity
  8
0
 62
     7
370
    70
  0
POLYLINE
  5
123
330
1F
100
AcDbEntity
  8
0
 62
     7
370
    70
100
AcDb2dPolyline
 66
     1
 10
0.0
 20
0.0
 30
0.0
  0
VERTEX
  5
124
330
123
100
AcDbEntity
  8
0
370
     0
100
AcDbVertex
100
AcDb2dVertex
 10
343.016083
 20
427.471832
 30
0.0
  0
VERTEX
  5
125
330
123
100
AcDbEntity
  8
0
370
     0
100
AcDbVertex
100
AcDb2dVertex
 10
353.403198
 20
427.471832
 30
0.0
  0
SEQEND
  5
126
330
123
100
AcDbEntity
  8
0
 62
     7
370
    70
  0
POLYLINE
  5
127
330
1F
100
AcDbEntity
  8
0
 62
     7
370
    70
100
AcDb2dPolyline
 66
     1
 10
0.0
 20
0.0
 30
0.0
  0
VERTEX
  5
128
330
127
100
AcDbEntity
  8
0
370
     0
100
AcDbVertex
100
AcDb2dVertex
 10
362.074158
 20
434.020203
 30
0.0
  0
VERTEX
  5
129
330
127
100
AcDbEntity
  8
0
370
     0
100
AcDbVertex
100
AcDb2dVertex
 10
364.558014
 20
435.82666
 30
0.0
  0
VERTEX
  5
12A
330
127
100
AcDbEntity
  8
0
370
     0
100
AcDbVertex
100
AcDb2dVertex
 10
364.558014
 20
421.82666
 30
0.0
  0
SEQEND
  5
12B
330
127
100
AcDbEntity
  8
0
 62
     7
370
    70
  0
POLYLINE
  5
12C
330
1F
100
AcDbEntity
  8
0
 62
     7
370
    70
100
AcDb2dPolyline
 66
     1
 10
0.0
 20
0.0
 30
0.0
  0
VERTEX
  5
12D
330
12C
100
AcDbEntity
  8
0
370
     0
100
AcDbVertex
100
AcDb2dVertex
 10
360.71933
 20
433.342804
 30
0.0
  0
VERTEX
  5
12E
330
12C
100
AcDbEntity
  8
0
370
     0
100
AcDbVertex
100
AcDb2dVertex
 10
362.074158
 20
434.020203
 30
0.0
  0
SEQEND
  5
12F
330
12C
100
AcDbEntity
  8
0
 62
     7
370
    70
  0
POLYLINE
  5
130
330
1F
100
AcDbEntity
  8
0
 62
     7
370
    70
100
AcDb2dPolyline
 66
     1
 10
0.0
 20
0.0
 30
0.0
  0
VERTEX
  5
131
330
130
100
AcDbEntity
  8
0
370
     0
100
AcDbVertex
100
AcDb2dVertex
 10
374.358032
 20
417.310547
 30
0.0
  0
VERTEX
  5
132
330
130
100
AcDbEntity
  8
0
370
     0
100
AcDbVertex
100
AcDb2dVertex
 10
380.680603
 20
427.020203
 30
0.0
  0
VERTEX
  5
133
330
130
100
AcDbEntity
  8
0
370
     0
100
AcDbVertex
100
AcDb2dVertex
 10
387.003174
 20
436.955688
 30
0.0
  0
SEQEND
  5
134
330
130
100
AcDbEntity
  8
0
 62
     7
370
    70
  0
POLYLINE
  5
135
330
1F
100
AcDbEntity
  8
0
 62
     7
370
    70
100
AcDb2dPolyline
 66
     1
 10
0.0
 20
0.0
 30
0.0
  0
VERTEX
  5
136
330
135
100
AcDbEntity
  8
0
370
     0
100
AcDbVertex
100
AcDb2dVertex
 10
401.545105
 20
431.310547
 30
0.0
  0
VERTEX
  5
137
330
135
100
AcDbEntity
  8
0
370
     0
100
AcDbVertex
100
AcDb2dVertex
 10
400.867706
 20
433.794434
 30
0.0
  0
VERTEX
  5
138
330
135
100
AcDbEntity
  8
0
370
     0
100
AcDbVertex
100
AcDb2dVertex
 10
399.287048
 20
435.149261
 30
0.0
  0
VERTEX
  5
139
330
135
100
AcDbEntity
  8
0
370
     0
100
AcDbVertex
100
AcDb2dVertex
 10
396.803192
 20
435.82666
 30
0.0
  0
VERTEX
  5
13A
330
135
100
AcDbEntity
  8
0
370
     0
100
AcDbVertex
100
AcDb2dVertex
 10
396.125763
 20
435.82666
 30
0.0
  0
VERTEX
  5
13B
330
135
100
AcDbEntity
  8
0
370
     0
100
AcDbVertex
100
AcDb2dVertex
 10
393.641907
 20
435.149261
 30
0.0
  0
VERTEX
  5
13C
330
135
100
AcDbEntity
  8
0
370
     0
100
AcDbVertex
100
AcDb2dVertex
 10
392.061249
 20
433.794434
 30
0.0
  0
VERTEX
  5
13D
330
135
100
AcDbEntity
  8
0
370
     0
100
AcDbVertex
100
AcDb2dVertex
 10
391.38382
 20
431.987976
 30
0.0
  0
VERTEX
  5
13E
330
135
100
AcDbEntity
  8
0
370
     0
100
AcDbVertex
100
AcDb2dVertex
 10
391.38382
 20
431.310547
 30
0.0
  0
VERTEX
  5
13F
330
135
100
AcDbEntity
  8
0
370
     0
100
AcDbVertex
100
AcDb2dVertex
 10
392.061249
 20
429.504089
 30
0.0
  0
VERTEX
  5
140
330
135
100
AcDbEntity
  8
0
370
     0
100
AcDbVertex
100
AcDb2dVertex
 10
393.641907
 20
428.149261
 30
0.0
  0
VERTEX
  5
141
330
135
100
AcDbEntity
  8
0
370
     0
100
AcDbVertex
100
AcDb2dVertex
 10
396.125763
 20
427.246033
 30
0.0
  0
VERTEX
  5
142
330
135
100
AcDbEntity
  8
0
370
     0
100
AcDbVertex
100
AcDb2dVertex
 10
396.803192
 20
427.246033
 30
0.0
  0
VERTEX
  5
143
330
135
100
AcDbEntity
  8
0
370
     0
100
AcDbVertex
100
AcDb2dVertex
 10
399.287048
 20
427.923462
 30
0.0
  0
VERTEX
  5
144
330
135
100
AcDbEntity
  8
0
370
     0
100
AcDbVertex
100
AcDb2dVertex
 10
400.867706
 20
429.27829
 30
0.0
  0
VERTEX
  5
145
330
135
100
AcDbEntity
  8
0
370
     0
100
AcDbVertex
100
AcDb2dVertex
 10
401.545105
 20
431.310547
 30
0.0
  0
VERTEX
  5
146
330
135
100
AcDbEntity
  8
0
370
     0
100
AcDbVertex
100
AcDb2dVertex
 10
401.545105
 20
428.149261
 30
0.0
  0
VERTEX
  5
147
330
135
100
AcDbEntity
  8
0
370
     0
100
AcDbVertex
100
AcDb2dVertex
 10
400.867706
 20
424.987976
 30
0.0
  0
VERTEX
  5
148
330
135
100
AcDbEntity
  8
0
370
     0
100
AcDbVertex
100
AcDb2dVertex
 10
399.287048
 20
422.504089
 30
0.0
  0
VERTEX
  5
149
330
135
100
AcDbEntity
  8
0
370
     0
100
AcDbVertex
100
AcDb2dVertex
 10
396.803192
 20
421.82666
 30
0.0
  0
VERTEX
  5
14A
330
135
100
AcDbEntity
  8
0
370
     0
100
AcDbVertex
100
AcDb2dVertex
 10
395.222534
 20
421.82666
 30
0.0
  0
VERTEX
  5
14B
330
135
100
AcDbEntity
  8
0
370
     0
100
AcDbVertex
100
AcDb2dVertex
 10
392.964478
 20
422.504089
 30
0.0
  0
VERTEX
  5
14C
330
135
100
AcDbEntity
  8
0
370
     0
100
AcDbVertex
100
AcDb2dVertex
 10
392.061249
 20
423.858948
 30
0.0
  0
SEQEND
  5
14D
330
135
100
AcDbEntity
  8
0
 62
     7
370
    70
  0
POLYLINE
  5
14E
330
1F
100
AcDbEntity
  8
0
 62
     7
370
    70
100
AcDb2dPolyline
 66
     1
 10
0.0
 20
0.0
 30
0.0
  0
VERTEX
  5
14F
330
14E
100
AcDbEntity
  8
0
370
     0
100
AcDbVertex
100
AcDb2dVertex
 10
411.345123
 20
435.82666
 30
0.0
  0
VERTEX
  5
150
330
14E
100
AcDbEntity
  8
0
370
     0
100
AcDbVertex
100
AcDb2dVertex
 10
411.345123
 20
431.536346
 30
0.0
  0
SEQEND
  5
151
330
14E
100
AcDbEntity
  8
0
 62
     7
370
    70
  0
POLYLINE
  5
152
330
1F
100
AcDbEntity
  8
0
 62
     7
370
    70
100
AcDb2dPolyline
 66
     1
 10
0.0
 20
0.0
 30
0.0
  0
VERTEX
  5
153
330
152
100
AcDbEntity
  8
0
370
     0
100
AcDbVertex
100
AcDb2dVertex
 10
415.861267
 20
435.82666
 30
0.0
  0
VERTEX
  5
154
330
152
100
AcDbEntity
  8
0
370
     0
100
AcDbVertex
100
AcDb2dVertex
 10
415.861267
 20
431.536346
 30
0.0
  0
SEQEND
  5
155
330
152
100
AcDbEntity
  8
0
 62
     7
370
    70
  0
LINE
  5
156
330
1F
100
AcDbEntity
  8
0
 62
     7
370
    35
100
AcDbLine
 10
230.106415
 20
345.118073
 30
0.0
 11
230.106415
 21
421.82666
 31
0.0
  0
LINE
  5
157
330
1F
100
AcDbEntity
  8
0
 62
     7
370
    35
100
AcDbLine
 10
498.106415
 20
345.118073
 30
0.0
 11
498.106415
 21
421.82666
 31
0.0
  0
POLYLINE
  5
158
330
1F
100
AcDbEntity
  8
0
 62
     7
370
    35
100
AcDb2dPolyline
 66
     1
 10
0.0
 20
0.0
 30
0.0
  0
VERTEX
  5
159
330
158
100
AcDbEntity
  8
0
370
     0
100
AcDbVertex
100
AcDb2dVertex
 10
496.174561
 20
419.309021
 30
0.0
  0
VERTEX
  5
15A
330
158
100
AcDbEntity
  8
0
370
     0
100
AcDbVertex
100
AcDb2dVertex
 10
498.106415
 20
419.82666
 30
0.0
  0
VERTEX
  5
15B
330
158
100
AcDbEntity
  8
0
370
     0
100
AcDbVertex
100
AcDb2dVertex
 10
496.174561
 20
420.344299
 30
0.0
  0
SEQEND
  5
15C
330
158
100
AcDbEntity
  8
0
 62
     7
370
    35
  0
POLYLINE
  5
15D
330
1F
100
AcDbEntity
  8
0
 62
     7
370
    35
100
AcDb2dPolyline
 66
     1
 10
0.0
 20
0.0
 30
0.0
  0
VERTEX
  5
15E
330
15D
100
AcDbEntity
  8
0
370
     0
100
AcDbVertex
100
AcDb2dVertex
 10
232.038269
 20
420.344299
 30
0.0
  0
VERTEX
  5
15F
330
15D
100
AcDbEntity
  8
0
370
     0
100
AcDbVertex
100
AcDb2dVertex
 10
230.106415
 20
419.82666
 30
0.0
  0
VERTEX
  5
160
330
15D
100
AcDbEntity
  8
0
370
     0
100
AcDbVertex
100
AcDb2dVertex
 10
232.038269
 20
419.309021
 30
0.0
  0
SEQEND
  5
161
330
15D
100
AcDbEntity
  8
0
 62
     7
370
    35
  0
LINE
  5
162
330
1F
100
AcDbEntity
  8
0
 62
     7
370
    35
100
AcDbLine
 10
230.106415
 20
419.82666
 30
0.0
 11
498.106415
 21
419.82666
 31
0.0
  0
POLYLINE
  5
163
330
1F
100
AcDbEntity
  8
0
 62
     7
370
    70
100
AcDb2dPolyline
 66
     1
 10
0.0
 20
0.0
 30
0.0
  0
VERTEX
  5
164
330
163
100
AcDbEntity
  8
0
370
     0
100
AcDbVertex
100
AcDb2dVertex
 10
185.135178
 20
236.623993
 30
0.0
  0
VERTEX
  5
165
330
163
100
AcDbEntity
  8
0
370
     0
100
AcDbVertex
100
AcDb2dVertex
 10
183.32872
 20
239.107864
 30
0.0
  0
VERTEX
  5
166
330
163
100
AcDbEntity
  8
0
370
     0
100
AcDbVertex
100
AcDb2dVertex
 10
197.32872
 20
239.107864
 30
0.0
  0
SEQEND
  5
167
330
163
100
AcDbEntity
  8
0
 62
     7
370
    70
  0
POLYLINE
  5
168
330
1F
100
AcDbEntity
  8
0
 62
     7
370
    70
100
AcDb2dPolyline
 66
     1
 10
0.0
 20
0.0
 30
0.0
  0
VERTEX
  5
169
330
168
100
AcDbEntity
  8
0
370
     0
100
AcDbVertex
100
AcDb2dVertex
 10
185.812592
 20
235.26915
 30
0.0
  0
VERTEX
  5
16A
330
168
100
AcDbEntity
  8
0
370
     0
100
AcDbVertex
100
AcDb2dVertex
 10
185.135178
 20
236.623993
 30
0.0
  0
SEQEND
  5
16B
330
168
100
AcDbEntity
  8
0
 62
     7
370
    70
  0
POLYLINE
  5
16C
330
1F
100
AcDbEntity
  8
0
 62
     7
370
    70
100
AcDb2dPolyline
 66
     1
 10
0.0
 20
0.0
 30
0.0
  0
VERTEX
  5
16D
330
16C
100
AcDbEntity
  8
0
370
     0
100
AcDbVertex
100
AcDb2dVertex
 10
194.844849
 20
249.585281
 30
0.0
  0
VERTEX
  5
16E
330
16C
100
AcDbEntity
  8
0
370
     0
100
AcDbVertex
100
AcDb2dVertex
 10
195.973877
 20
250.262695
 30
0.0
  0
VERTEX
  5
16F
330
16C
100
AcDbEntity
  8
0
370
     0
100
AcDbVertex
100
AcDb2dVertex
 10
196.651306
 20
250.940125
 30
0.0
  0
VERTEX
  5
170
330
16C
100
AcDbEntity
  8
0
370
     0
100
AcDbVertex
100
AcDb2dVertex
 10
197.32872
 20
253.423996
 30
0.0
  0
VERTEX
  5
171
330
16C
100
AcDbEntity
  8
0
370
     0
100
AcDbVertex
100
AcDb2dVertex
 10
197.32872
 20
255.907867
 30
0.0
  0
VERTEX
  5
172
330
16C
100
AcDbEntity
  8
0
370
     0
100
AcDbVertex
100
AcDb2dVertex
 10
196.651306
 20
258.617554
 30
0.0
  0
VERTEX
  5
173
330
16C
100
AcDbEntity
  8
0
370
     0
100
AcDbVertex
100
AcDb2dVertex
 10
195.296463
 20
259.972382
 30
0.0
  0
VERTEX
  5
174
330
16C
100
AcDbEntity
  8
0
370
     0
100
AcDbVertex
100
AcDb2dVertex
 10
193.264206
 20
260.649811
 30
0.0
  0
VERTEX
  5
175
330
16C
100
AcDbEntity
  8
0
370
     0
100
AcDbVertex
100
AcDb2dVertex
 10
191.909363
 20
260.649811
 30
0.0
  0
VERTEX
  5
176
330
16C
100
AcDbEntity
  8
0
370
     0
100
AcDbVertex
100
AcDb2dVertex
 10
189.877106
 20
259.972382
 30
0.0
  0
VERTEX
  5
177
330
16C
100
AcDbEntity
  8
0
370
     0
100
AcDbVertex
100
AcDb2dVertex
 10
188.748077
 20
258.617554
 30
0.0
  0
VERTEX
  5
178
330
16C
100
AcDbEntity
  8
0
370
     0
100
AcDbVertex
100
AcDb2dVertex
 10
188.070648
 20
255.907867
 30
0.0
  0
VERTEX
  5
179
330
16C
100
AcDbEntity
  8
0
370
     0
100
AcDbVertex
100
AcDb2dVertex
 10
188.070648
 20
253.423996
 30
0.0
  0
VERTEX
  5
17A
330
16C
100
AcDbEntity
  8
0
370
     0
100
AcDbVertex
100
AcDb2dVertex
 10
188.748077
 20
251.391739
 30
0.0
  0
VERTEX
  5
17B
330
16C
100
AcDbEntity
  8
0
370
     0
100
AcDbVertex
100
AcDb2dVertex
 10
189.425491
 20
250.714325
 30
0.0
  0
VERTEX
  5
17C
330
16C
100
AcDbEntity
  8
0
370
     0
100
AcDbVertex
100
AcDb2dVertex
 10
183.32872
 20
251.391739
 30
0.0
  0
VERTEX
  5
17D
330
16C
100
AcDbEntity
  8
0
370
     0
100
AcDbVertex
100
AcDb2dVertex
 10
183.32872
 20
259.746582
 30
0.0
  0
SEQEND
  5
17E
330
16C
100
AcDbEntity
  8
0
 62
     7
370
    70
  0
POLYLINE
  5
17F
330
1F
100
AcDbEntity
  8
0
 62
     7
370
    70
100
AcDb2dPolyline
 66
     1
 10
0.0
 20
0.0
 30
0.0
  0
VERTEX
  5
180
330
17F
100
AcDbEntity
  8
0
370
     0
100
AcDbVertex
100
AcDb2dVertex
 10
191.683563
 20
266.611084
 30
0.0
  0
VERTEX
  5
181
330
17F
100
AcDbEntity
  8
0
370
     0
100
AcDbVertex
100
AcDb2dVertex
 10
191.683563
 20
276.998199
 30
0.0
  0
SEQEND
  5
182
330
17F
100
AcDbEntity
  8
0
 62
     7
370
    70
  0
POLYLINE
  5
183
330
1F
100
AcDbEntity
  8
0
 62
     7
370
    70
100
AcDb2dPolyline
 66
     1
 10
0.0
 20
0.0
 30
0.0
  0
VERTEX
  5
184
330
183
100
AcDbEntity
  8
0
370
     0
100
AcDbVertex
100
AcDb2dVertex
 10
194.844849
 20
282.282043
 30
0.0
  0
VERTEX
  5
185
330
183
100
AcDbEntity
  8
0
370
     0
100
AcDbVertex
100
AcDb2dVertex
 10
195.973877
 20
282.959473
 30
0.0
  0
VERTEX
  5
186
330
183
100
AcDbEntity
  8
0
370
     0
100
AcDbVertex
100
AcDb2dVertex
 10
196.651306
 20
283.636902
 30
0.0
  0
VERTEX
  5
187
330
183
100
AcDbEntity
  8
0
370
     0
100
AcDbVertex
100
AcDb2dVertex
 10
197.32872
 20
286.120758
 30
0.0
  0
VERTEX
  5
188
330
183
100
AcDbEntity
  8
0
370
     0
100
AcDbVertex
100
AcDb2dVertex
 10
197.32872
 20
288.604645
 30
0.0
  0
VERTEX
  5
189
330
183
100
AcDbEntity
  8
0
370
     0
100
AcDbVertex
100
AcDb2dVertex
 10
196.651306
 20
291.314301
 30
0.0
  0
VERTEX
  5
18A
330
183
100
AcDbEntity
  8
0
370
     0
100
AcDbVertex
100
AcDb2dVertex
 10
195.296463
 20
292.669159
 30
0.0
  0
VERTEX
  5
18B
330
183
100
AcDbEntity
  8
0
370
     0
100
AcDbVertex
100
AcDb2dVertex
 10
193.264206
 20
293.346588
 30
0.0
  0
VERTEX
  5
18C
330
183
100
AcDbEntity
  8
0
370
     0
100
AcDbVertex
100
AcDb2dVertex
 10
191.909363
 20
293.346588
 30
0.0
  0
VERTEX
  5
18D
330
183
100
AcDbEntity
  8
0
370
     0
100
AcDbVertex
100
AcDb2dVertex
 10
189.877106
 20
292.669159
 30
0.0
  0
VERTEX
  5
18E
330
183
100
AcDbEntity
  8
0
370
     0
100
AcDbVertex
100
AcDb2dVertex
 10
188.748077
 20
291.314331
 30
0.0
  0
VERTEX
  5
18F
330
183
100
AcDbEntity
  8
0
370
     0
100
AcDbVertex
100
AcDb2dVertex
 10
188.070648
 20
288.604645
 30
0.0
  0
VERTEX
  5
190
330
183
100
AcDbEntity
  8
0
370
     0
100
AcDbVertex
100
AcDb2dVertex
 10
188.070648
 20
286.120758
 30
0.0
  0
VERTEX
  5
191
330
183
100
AcDbEntity
  8
0
370
     0
100
AcDbVertex
100
AcDb2dVertex
 10
188.748077
 20
284.088501
 30
0.0
  0
VERTEX
  5
192
330
183
100
AcDbEntity
  8
0
370
     0
100
AcDbVertex
100
AcDb2dVertex
 10
189.425491
 20
283.411102
 30
0.0
  0
VERTEX
  5
193
330
183
100
AcDbEntity
  8
0
370
     0
100
AcDbVertex
100
AcDb2dVertex
 10
183.32872
 20
284.088501
 30
0.0
  0
VERTEX
  5
194
330
183
100
AcDbEntity
  8
0
370
     0
100
AcDbVertex
100
AcDb2dVertex
 10
183.32872
 20
292.443359
 30
0.0
  0
SEQEND
  5
195
330
183
100
AcDbEntity
  8
0
 62
     7
370
    70
  0
POLYLINE
  5
196
330
1F
100
AcDbEntity
  8
0
 62
     7
370
    70
100
AcDb2dPolyline
 66
     1
 10
0.0
 20
0.0
 30
0.0
  0
VERTEX
  5
197
330
196
100
AcDbEntity
  8
0
370
     0
100
AcDbVertex
100
AcDb2dVertex
 10
201.844849
 20
297.953033
 30
0.0
  0
VERTEX
  5
198
330
196
100
AcDbEntity
  8
0
370
     0
100
AcDbVertex
100
AcDb2dVertex
 10
192.135178
 20
304.275604
 30
0.0
  0
VERTEX
  5
199
330
196
100
AcDbEntity
  8
0
370
     0
100
AcDbVertex
100
AcDb2dVertex
 10
182.199692
 20
310.598175
 30
0.0
  0
SEQEND
  5
19A
330
196
100
AcDbEntity
  8
0
 62
     7
370
    70
  0
POLYLINE
  5
19B
330
1F
100
AcDbEntity
  8
0
 62
     7
370
    70
100
AcDb2dPolyline
 66
     1
 10
0.0
 20
0.0
 30
0.0
  0
VERTEX
  5
19C
330
19B
100
AcDbEntity
  8
0
370
     0
100
AcDbVertex
100
AcDb2dVertex
 10
185.135178
 20
324.914307
 30
0.0
  0
VERTEX
  5
19D
330
19B
100
AcDbEntity
  8
0
370
     0
100
AcDbVertex
100
AcDb2dVertex
 10
184.006134
 20
324.236908
 30
0.0
  0
VERTEX
  5
19E
330
19B
100
AcDbEntity
  8
0
370
     0
100
AcDbVertex
100
AcDb2dVertex
 10
183.32872
 20
321.753021
 30
0.0
  0
VERTEX
  5
19F
330
19B
100
AcDbEntity
  8
0
370
     0
100
AcDbVertex
100
AcDb2dVertex
 10
183.32872
 20
320.398193
 30
0.0
  0
VERTEX
  5
1A0
330
19B
100
AcDbEntity
  8
0
370
     0
100
AcDbVertex
100
AcDb2dVertex
 10
184.006134
 20
317.914307
 30
0.0
  0
VERTEX
  5
1A1
330
19B
100
AcDbEntity
  8
0
370
     0
100
AcDbVertex
100
AcDb2dVertex
 10
185.812592
 20
316.333679
 30
0.0
  0
VERTEX
  5
1A2
330
19B
100
AcDbEntity
  8
0
370
     0
100
AcDbVertex
100
AcDb2dVertex
 10
188.973877
 20
315.65625
 30
0.0
  0
VERTEX
  5
1A3
330
19B
100
AcDbEntity
  8
0
370
     0
100
AcDbVertex
100
AcDb2dVertex
 10
192.135178
 20
315.65625
 30
0.0
  0
VERTEX
  5
1A4
330
19B
100
AcDbEntity
  8
0
370
     0
100
AcDbVertex
100
AcDb2dVertex
 10
194.619049
 20
316.333679
 30
0.0
  0
VERTEX
  5
1A5
330
19B
100
AcDbEntity
  8
0
370
     0
100
AcDbVertex
100
AcDb2dVertex
 10
196.199692
 20
317.688507
 30
0.0
  0
VERTEX
  5
1A6
330
19B
100
AcDbEntity
  8
0
370
     0
100
AcDbVertex
100
AcDb2dVertex
 10
197.32872
 20
320.172363
 30
0.0
  0
VERTEX
  5
1A7
330
19B
100
AcDbEntity
  8
0
370
     0
100
AcDbVertex
100
AcDb2dVertex
 10
197.32872
 20
321.075592
 30
0.0
  0
VERTEX
  5
1A8
330
19B
100
AcDbEntity
  8
0
370
     0
100
AcDbVertex
100
AcDb2dVertex
 10
196.651306
 20
323.559479
 30
0.0
  0
VERTEX
  5
1A9
330
19B
100
AcDbEntity
  8
0
370
     0
100
AcDbVertex
100
AcDb2dVertex
 10
195.296463
 20
324.914307
 30
0.0
  0
VERTEX
  5
1AA
330
19B
100
AcDbEntity
  8
0
370
     0
100
AcDbVertex
100
AcDb2dVertex
 10
193.490005
 20
325.591736
 30
0.0
  0
VERTEX
  5
1AB
330
19B
100
AcDbEntity
  8
0
370
     0
100
AcDbVertex
100
AcDb2dVertex
 10
192.812592
 20
325.591736
 30
0.0
  0
VERTEX
  5
1AC
330
19B
100
AcDbEntity
  8
0
370
     0
100
AcDbVertex
100
AcDb2dVertex
 10
191.006134
 20
324.914307
 30
0.0
  0
VERTEX
  5
1AD
330
19B
100
AcDbEntity
  8
0
370
     0
100
AcDbVertex
100
AcDb2dVertex
 10
189.651306
 20
323.559479
 30
0.0
  0
VERTEX
  5
1AE
330
19B
100
AcDbEntity
  8
0
370
     0
100
AcDbVertex
100
AcDb2dVertex
 10
188.973877
 20
321.075592
 30
0.0
  0
VERTEX
  5
1AF
330
19B
100
AcDbEntity
  8
0
370
     0
100
AcDbVertex
100
AcDb2dVertex
 10
188.973877
 20
320.172363
 30
0.0
  0
VERTEX
  5
1B0
330
19B
100
AcDbEntity
  8
0
370
     0
100
AcDbVertex
100
AcDb2dVertex
 10
189.651306
 20
317.688507
 30
0.0
  0
VERTEX
  5
1B1
330
19B
100
AcDbEntity
  8
0
370
     0
100
AcDbVertex
100
AcDb2dVertex
 10
190.780334
 20
316.333679
 30
0.0
  0
VERTEX
  5
1B2
330
19B
100
AcDbEntity
  8
0
370
     0
100
AcDbVertex
100
AcDb2dVertex
 10
192.360977
 20
315.65625
 30
0.0
  0
SEQEND
  5
1B3
330
19B
100
AcDbEntity
  8
0
 62
     7
370
    70
  0
POLYLINE
  5
1B4
330
1F
100
AcDbEntity
  8
0
 62
     7
370
    70
100
AcDb2dPolyline
 66
     1
 10
0.0
 20
0.0
 30
0.0
  0
VERTEX
  5
1B5
330
1B4
100
AcDbEntity
  8
0
370
     0
100
AcDbVertex
100
AcDb2dVertex
 10
183.32872
 20
334.940125
 30
0.0
  0
VERTEX
  5
1B6
330
1B4
100
AcDbEntity
  8
0
370
     0
100
AcDbVertex
100
AcDb2dVertex
 10
187.619049
 20
334.940125
 30
0.0
  0
SEQEND
  5
1B7
330
1B4
100
AcDbEntity
  8
0
 62
     7
370
    70
  0
POLYLINE
  5
1B8
330
1F
100
AcDbEntity
  8
0
 62
     7
370
    70
100
AcDb2dPolyline
 66
     1
 10
0.0
 20
0.0
 30
0.0
  0
VERTEX
  5
1B9
330
1B8
100
AcDbEntity
  8
0
370
     0
100
AcDbVertex
100
AcDb2dVertex
 10
183.32872
 20
339.456238
 30
0.0
  0
VERTEX
  5
1BA
330
1B8
100
AcDbEntity
  8
0
370
     0
100
AcDbVertex
100
AcDb2dVertex
 10
187.619049
 20
339.456238
 30
0.0
  0
SEQEND
  5
1BB
330
1B8
100
AcDbEntity
  8
0
 62
     7
370
    70
  0
LINE
  5
1BC
330
1F
100
AcDbEntity
  8
0
 62
     7
370
    35
100
AcDbLine
 10
273.190613
 20
187.201416
 30
0.0
 11
197.32872
 21
187.201416
 31
0.0
  0
LINE
  5
1BD
330
1F
100
AcDbEntity
  8
0
 62
     7
370
    35
100
AcDbLine
 10
273.190613
 20
388.201416
 30
0.0
 11
197.32872
 21
388.201416
 31
0.0
  0
POLYLINE
  5
1BE
330
1F
100
AcDbEntity
  8
0
 62
     7
370
    35
100
AcDb2dPolyline
 66
     1
 10
0.0
 20
0.0
 30
0.0
  0
VERTEX
  5
1BF
330
1BE
100
AcDbEntity
  8
0
370
     0
100
AcDbVertex
100
AcDb2dVertex
 10
199.846344
 20
386.269562
 30
0.0
  0
VERTEX
  5
1C0
330
1BE
100
AcDbEntity
  8
0
370
     0
100
AcDbVertex
100
AcDb2dVertex
 10
199.32872
 20
388.201416
 30
0.0
  0
VERTEX
  5
1C1
330
1BE
100
AcDbEntity
  8
0
370
     0
100
AcDbVertex
100
AcDb2dVertex
 10
198.811081
 20
386.269562
 30
0.0
  0
SEQEND
  5
1C2
330
1BE
100
AcDbEntity
  8
0
 62
     7
370
    35
  0
POLYLINE
  5
1C3
330
1F
100
AcDbEntity
  8
0
 62
     7
370
    35
100
AcDb2dPolyline
 66
     1
 10
0.0
 20
0.0
 30
0.0
  0
VERTEX
  5
1C4
330
1C3
100
AcDbEntity
  8
0
370
     0
100
AcDbVertex
100
AcDb2dVertex
 10
198.811081
 20
189.13327
 30
0.0
  0
VERTEX
  5
1C5
330
1C3
100
AcDbEntity
  8
0
370
     0
100
AcDbVertex
100
AcDb2dVertex
 10
199.32872
 20
187.201416
 30
0.0
  0
VERTEX
  5
1C6
330
1C3
100
AcDbEntity
  8
0
370
     0
100
AcDbVertex
100
AcDb2dVertex
 10
199.846344
 20
189.13327
 30
0.0
  0
SEQEND
  5
1C7
330
1C3
100
AcDbEntity
  8
0
 62
     7
370
    35
  0
LINE
  5
1C8
330
1F
100
AcDbEntity
  8
0
 62
     7
370
    35
100
AcDbLine
 10
199.32872
 20
187.201416
 30
0.0
 11
199.32872
 21
388.201416
 31
0.0
  0
POLYLINE
  5
1C9
330
1F
100
AcDbEntity
  8
0
 62
     7
370
    70
100
AcDb2dPolyline
 66
     1
 10
0.0
 20
0.0
 30
0.0
  0
VERTEX
  5
1CA
330
1C9
100
AcDbEntity
  8
0
370
     0
100
AcDbVertex
100
AcDb2dVertex
 10
148.915726
 20
236.623993
 30
0.0
  0
VERTEX
  5
1CB
330
1C9
100
AcDbEntity
  8
0
370
     0
100
AcDbVertex
100
AcDb2dVertex
 10
147.109268
 20
239.107864
 30
0.0
  0
VERTEX
  5
1CC
330
1C9
100
AcDbEntity
  8
0
370
     0
100
AcDbVertex
100
AcDb2dVertex
 10
161.109268
 20
239.107864
 30
0.0
  0
SEQEND
  5
1CD
330
1C9
100
AcDbEntity
  8
0
 62
     7
370
    70
  0
POLYLINE
  5
1CE
330
1F
100
AcDbEntity
  8
0
 62
     7
370
    70
100
AcDb2dPolyline
 66
     1
 10
0.0
 20
0.0
 30
0.0
  0
VERTEX
  5
1CF
330
1CE
100
AcDbEntity
  8
0
370
     0
100
AcDbVertex
100
AcDb2dVertex
 10
149.59314
 20
235.26915
 30
0.0
  0
VERTEX
  5
1D0
330
1CE
100
AcDbEntity
  8
0
370
     0
100
AcDbVertex
100
AcDb2dVertex
 10
148.915726
 20
236.623993
 30
0.0
  0
SEQEND
  5
1D1
330
1CE
100
AcDbEntity
  8
0
 62
     7
370
    70
  0
POLYLINE
  5
1D2
330
1F
100
AcDbEntity
  8
0
 62
     7
370
    70
100
AcDb2dPolyline
 66
     1
 10
0.0
 20
0.0
 30
0.0
  0
VERTEX
  5
1D3
330
1D2
100
AcDbEntity
  8
0
370
     0
100
AcDbVertex
100
AcDb2dVertex
 10
147.109268
 20
249.585281
 30
0.0
  0
VERTEX
  5
1D4
330
1D2
100
AcDbEntity
  8
0
370
     0
100
AcDbVertex
100
AcDb2dVertex
 10
147.109268
 20
260.423981
 30
0.0
  0
VERTEX
  5
1D5
330
1D2
100
AcDbEntity
  8
0
370
     0
100
AcDbVertex
100
AcDb2dVertex
 10
161.109268
 20
252.294952
 30
0.0
  0
SEQEND
  5
1D6
330
1D2
100
AcDbEntity
  8
0
 62
     7
370
    70
  0
POLYLINE
  5
1D7
330
1F
100
AcDbEntity
  8
0
 62
     7
370
    70
100
AcDb2dPolyline
 66
     1
 10
0.0
 20
0.0
 30
0.0
  0
VERTEX
  5
1D8
330
1D7
100
AcDbEntity
  8
0
370
     0
100
AcDbVertex
100
AcDb2dVertex
 10
155.464111
 20
266.611084
 30
0.0
  0
VERTEX
  5
1D9
330
1D7
100
AcDbEntity
  8
0
370
     0
100
AcDbVertex
100
AcDb2dVertex
 10
155.464111
 20
276.998199
 30
0.0
  0
SEQEND
  5
1DA
330
1D7
100
AcDbEntity
  8
0
 62
     7
370
    70
  0
POLYLINE
  5
1DB
330
1F
100
AcDbEntity
  8
0
 62
     7
370
    70
100
AcDb2dPolyline
 66
     1
 10
0.0
 20
0.0
 30
0.0
  0
VERTEX
  5
1DC
330
1DB
100
AcDbEntity
  8
0
370
     0
100
AcDbVertex
100
AcDb2dVertex
 10
156.141525
 20
292.669159
 30
0.0
  0
VERTEX
  5
1DD
330
1DB
100
AcDbEntity
  8
0
370
     0
100
AcDbVertex
100
AcDb2dVertex
 10
156.141525
 20
282.282043
 30
0.0
  0
VERTEX
  5
1DE
330
1DB
100
AcDbEntity
  8
0
370
     0
100
AcDbVertex
100
AcDb2dVertex
 10
147.109268
 20
289.959473
 30
0.0
  0
VERTEX
  5
1DF
330
1DB
100
AcDbEntity
  8
0
370
     0
100
AcDbVertex
100
AcDb2dVertex
 10
153.883469
 20
289.959473
 30
0.0
  0
VERTEX
  5
1E0
330
1DB
100
AcDbEntity
  8
0
370
     0
100
AcDbVertex
100
AcDb2dVertex
 10
161.109268
 20
289.959473
 30
0.0
  0
SEQEND
  5
1E1
330
1DB
100
AcDbEntity
  8
0
 62
     7
370
    70
  0
POLYLINE
  5
1E2
330
1F
100
AcDbEntity
  8
0
 62
     7
370
    70
100
AcDb2dPolyline
 66
     1
 10
0.0
 20
0.0
 30
0.0
  0
VERTEX
  5
1E3
330
1E2
100
AcDbEntity
  8
0
370
     0
100
AcDbVertex
100
AcDb2dVertex
 10
165.625397
 20
297.953033
 30
0.0
  0
VERTEX
  5
1E4
330
1E2
100
AcDbEntity
  8
0
370
     0
100
AcDbVertex
100
AcDb2dVertex
 10
155.915726
 20
304.275604
 30
0.0
  0
VERTEX
  5
1E5
330
1E2
100
AcDbEntity
  8
0
370
     0
100
AcDbVertex
100
AcDb2dVertex
 10
145.98024
 20
310.598175
 30
0.0
  0
SEQEND
  5
1E6
330
1E2
100
AcDbEntity
  8
0
 62
     7
370
    70
  0
POLYLINE
  5
1E7
330
1F
100
AcDbEntity
  8
0
 62
     7
370
    70
100
AcDb2dPolyline
 66
     1
 10
0.0
 20
0.0
 30
0.0
  0
VERTEX
  5
1E8
330
1E7
100
AcDbEntity
  8
0
370
     0
100
AcDbVertex
100
AcDb2dVertex
 10
158.625397
 20
314.978821
 30
0.0
  0
VERTEX
  5
1E9
330
1E7
100
AcDbEntity
  8
0
370
     0
100
AcDbVertex
100
AcDb2dVertex
 10
159.754425
 20
315.65625
 30
0.0
  0
VERTEX
  5
1EA
330
1E7
100
AcDbEntity
  8
0
370
     0
100
AcDbVertex
100
AcDb2dVertex
 10
160.431854
 20
316.333679
 30
0.0
  0
VERTEX
  5
1EB
330
1E7
100
AcDbEntity
  8
0
370
     0
100
AcDbVertex
100
AcDb2dVertex
 10
161.109268
 20
318.817535
 30
0.0
  0
VERTEX
  5
1EC
330
1E7
100
AcDbEntity
  8
0
370
     0
100
AcDbVertex
100
AcDb2dVertex
 10
161.109268
 20
321.301422
 30
0.0
  0
VERTEX
  5
1ED
330
1E7
100
AcDbEntity
  8
0
370
     0
100
AcDbVertex
100
AcDb2dVertex
 10
160.431854
 20
324.011078
 30
0.0
  0
VERTEX
  5
1EE
330
1E7
100
AcDbEntity
  8
0
370
     0
100
AcDbVertex
100
AcDb2dVertex
 10
159.077011
 20
325.365936
 30
0.0
  0
VERTEX
  5
1EF
330
1E7
100
AcDbEntity
  8
0
370
     0
100
AcDbVertex
100
AcDb2dVertex
 10
157.044754
 20
326.043335
 30
0.0
  0
VERTEX
  5
1F0
330
1E7
100
AcDbEntity
  8
0
370
     0
100
AcDbVertex
100
AcDb2dVertex
 10
155.689911
 20
326.043335
 30
0.0
  0
VERTEX
  5
1F1
330
1E7
100
AcDbEntity
  8
0
370
     0
100
AcDbVertex
100
AcDb2dVertex
 10
153.657654
 20
325.365936
 30
0.0
  0
VERTEX
  5
1F2
330
1E7
100
AcDbEntity
  8
0
370
     0
100
AcDbVertex
100
AcDb2dVertex
 10
152.528625
 20
324.011078
 30
0.0
  0
VERTEX
  5
1F3
330
1E7
100
AcDbEntity
  8
0
370
     0
100
AcDbVertex
100
AcDb2dVertex
 10
151.851196
 20
321.301422
 30
0.0
  0
VERTEX
  5
1F4
330
1E7
100
AcDbEntity
  8
0
370
     0
100
AcDbVertex
100
AcDb2dVertex
 10
151.851196
 20
318.817535
 30
0.0
  0
VERTEX
  5
1F5
330
1E7
100
AcDbEntity
  8
0
370
     0
100
AcDbVertex
100
AcDb2dVertex
 10
152.528625
 20
316.785278
 30
0.0
  0
VERTEX
  5
1F6
330
1E7
100
AcDbEntity
  8
0
370
     0
100
AcDbVertex
100
AcDb2dVertex
 10
153.206039
 20
316.107849
 30
0.0
  0
VERTEX
  5
1F7
330
1E7
100
AcDbEntity
  8
0
370
     0
100
AcDbVertex
100
AcDb2dVertex
 10
147.109268
 20
316.785278
 30
0.0
  0
VERTEX
  5
1F8
330
1E7
100
AcDbEntity
  8
0
370
     0
100
AcDbVertex
100
AcDb2dVertex
 10
147.109268
 20
325.140137
 30
0.0
  0
SEQEND
  5
1F9
330
1E7
100
AcDbEntity
  8
0
 62
     7
370
    70
  0
POLYLINE
  5
1FA
330
1F
100
AcDbEntity
  8
0
 62
     7
370
    70
100
AcDb2dPolyline
 66
     1
 10
0.0
 20
0.0
 30
0.0
  0
VERTEX
  5
1FB
330
1FA
100
AcDbEntity
  8
0
370
     0
100
AcDbVertex
100
AcDb2dVertex
 10
147.109268
 20
334.940125
 30
0.0
  0
VERTEX
  5
1FC
330
1FA
100
AcDbEntity
  8
0
370
     0
100
AcDbVertex
100
AcDb2dVertex
 10
151.399597
 20
334.940125
 30
0.0
  0
SEQEND
  5
1FD
330
1FA
100
AcDbEntity
  8
0
 62
     7
370
    70
  0
POLYLINE
  5
1FE
330
1F
100
AcDbEntity
  8
0
 62
     7
370
    70
100
AcDb2dPolyline
 66
     1
 10
0.0
 20
0.0
 30
0.0
  0
VERTEX
  5
1FF
330
1FE
100
AcDbEntity
  8
0
370
     0
100
AcDbVertex
100
AcDb2dVertex
 10
147.109268
 20
339.456238
 30
0.0
  0
VERTEX
  5
200
330
1FE
100
AcDbEntity
  8
0
370
     0
100
AcDbVertex
100
AcDb2dVertex
 10
151.399597
 20
339.456238
 30
0.0
  0
SEQEND
  5
201
330
1FE
100
AcDbEntity
  8
0
 62
     7
370
    70
  0
LINE
  5
202
330
1F
100
AcDbEntity
  8
0
 62
     7
370
    35
100
AcDbLine
 10
273.106415
 20
174.701416
 30
0.0
 11
161.109268
 21
174.701416
 31
0.0
  0
LINE
  5
203
330
1F
100
AcDbEntity
  8
0
 62
     7
370
    35
100
AcDbLine
 10
273.106415
 20
400.701416
 30
0.0
 11
161.109268
 21
400.701416
 31
0.0
  0
POLYLINE
  5
204
330
1F
100
AcDbEntity
  8
0
 62
     7
370
    35
100
AcDb2dPolyline
 66
     1
 10
0.0
 20
0.0
 30
0.0
  0
VERTEX
  5
205
330
204
100
AcDbEntity
  8
0
370
     0
100
AcDbVertex
100
AcDb2dVertex
 10
163.626892
 20
398.769562
 30
0.0
  0
VERTEX
  5
206
330
204
100
AcDbEntity
  8
0
370
     0
100
AcDbVertex
100
AcDb2dVertex
 10
163.109268
 20
400.701416
 30
0.0
  0
VERTEX
  5
207
330
204
100
AcDbEntity
  8
0
370
     0
100
AcDbVertex
100
AcDb2dVertex
 10
162.591629
 20
398.769562
 30
0.0
  0
SEQEND
  5
208
330
204
100
AcDbEntity
  8
0
 62
     7
370
    35
  0
POLYLINE
  5
209
330
1F
100
AcDbEntity
  8
0
 62
     7
370
    35
100
AcDb2dPolyline
 66
     1
 10
0.0
 20
0.0
 30
0.0
  0
VERTEX
  5
20A
330
209
100
AcDbEntity
  8
0
370
     0
100
AcDbVertex
100
AcDb2dVertex
 10
162.591629
 20
176.63327
 30
0.0
  0
VERTEX
  5
20B
330
209
100
AcDbEntity
  8
0
370
     0
100
AcDbVertex
100
AcDb2dVertex
 10
163.109268
 20
174.701416
 30
0.0
  0
VERTEX
  5
20C
330
209
100
AcDbEntity
  8
0
370
     0
100
AcDbVertex
100
AcDb2dVertex
 10
163.626892
 20
176.63327
 30
0.0
  0
SEQEND
  5
20D
330
209
100
AcDbEntity
  8
0
 62
     7
370
    35
  0
LINE
  5
20E
330
1F
100
AcDbEntity
  8
0
 62
     7
370
    35
100
AcDbLine
 10
163.109268
 20
174.701416
 30
0.0
 11
163.109268
 21
400.701416
 31
0.0
  0
POLYLINE
  5
20F
330
1F
100
AcDbEntity
  8
0
 62
     7
370
    70
100
AcDb2dPolyline
 66
     1
 10
0.0
 20
0.0
 30
0.0
  0
VERTEX
  5
210
330
20F
100
AcDbEntity
  8
0
370
     0
100
AcDbVertex
100
AcDb2dVertex
 10
461.142609
 20
240.431427
 30
0.0
  0
VERTEX
  5
211
330
20F
100
AcDbEntity
  8
0
370
     0
100
AcDbVertex
100
AcDb2dVertex
 10
462.25592
 20
242.752838
 30
0.0
  0
VERTEX
  5
212
330
20F
100
AcDbEntity
  8
0
370
     0
100
AcDbVertex
100
AcDb2dVertex
 10
461.947418
 20
244.811691
 30
0.0
  0
VERTEX
  5
213
330
20F
100
AcDbEntity
  8
0
370
     0
100
AcDbVertex
100
AcDb2dVertex
 10
460.512634
 20
246.949432
 30
0.0
  0
VERTEX
  5
214
330
20F
100
AcDbEntity
  8
0
370
     0
100
AcDbVertex
100
AcDb2dVertex
 10
460.000427
 20
247.392761
 30
0.0
  0
VERTEX
  5
215
330
20F
100
AcDbEntity
  8
0
370
     0
100
AcDbVertex
100
AcDb2dVertex
 10
457.679016
 20
248.506073
 30
0.0
  0
VERTEX
  5
216
330
20F
100
AcDbEntity
  8
0
370
     0
100
AcDbVertex
100
AcDb2dVertex
 10
455.597198
 20
248.516083
 30
0.0
  0
VERTEX
  5
217
330
20F
100
AcDbEntity
  8
0
370
     0
100
AcDbVertex
100
AcDb2dVertex
 10
453.902771
 20
247.593506
 30
0.0
  0
VERTEX
  5
218
330
20F
100
AcDbEntity
  8
0
370
     0
100
AcDbVertex
100
AcDb2dVertex
 10
453.459473
 20
247.081299
 30
0.0
  0
VERTEX
  5
219
330
20F
100
AcDbEntity
  8
0
370
     0
100
AcDbVertex
100
AcDb2dVertex
 10
452.789459
 20
245.272079
 30
0.0
  0
VERTEX
  5
21A
330
20F
100
AcDbEntity
  8
0
370
     0
100
AcDbVertex
100
AcDb2dVertex
 10
453.097961
 20
243.213226
 30
0.0
  0
VERTEX
  5
21B
330
20F
100
AcDbEntity
  8
0
370
     0
100
AcDbVertex
100
AcDb2dVertex
 10
454.384979
 20
240.904755
 30
0.0
  0
VERTEX
  5
21C
330
20F
100
AcDbEntity
  8
0
370
     0
100
AcDbVertex
100
AcDb2dVertex
 10
454.897186
 20
240.461426
 30
0.0
  0
VERTEX
  5
21D
330
20F
100
AcDbEntity
  8
0
370
     0
100
AcDbVertex
100
AcDb2dVertex
 10
457.218628
 20
239.348114
 30
0.0
  0
VERTEX
  5
21E
330
20F
100
AcDbEntity
  8
0
370
     0
100
AcDbVertex
100
AcDb2dVertex
 10
459.300415
 20
239.338104
 30
0.0
  0
VERTEX
  5
21F
330
20F
100
AcDbEntity
  8
0
370
     0
100
AcDbVertex
100
AcDb2dVertex
 10
461.142609
 20
240.431427
 30
0.0
  0
VERTEX
  5
220
330
20F
100
AcDbEntity
  8
0
370
     0
100
AcDbVertex
100
AcDb2dVertex
 10
459.073761
 20
238.041107
 30
0.0
  0
VERTEX
  5
221
330
20F
100
AcDbEntity
  8
0
370
     0
100
AcDbVertex
100
AcDb2dVertex
 10
456.492706
 20
236.094116
 30
0.0
  0
VERTEX
  5
222
330
20F
100
AcDbEntity
  8
0
370
     0
100
AcDbVertex
100
AcDb2dVertex
 10
453.672028
 20
235.250427
 30
0.0
  0
VERTEX
  5
223
330
20F
100
AcDbEntity
  8
0
370
     0
100
AcDbVertex
100
AcDb2dVertex
 10
451.350586
 20
236.363754
 30
0.0
  0
VERTEX
  5
224
330
20F
100
AcDbEntity
  8
0
370
     0
100
AcDbVertex
100
AcDb2dVertex
 10
450.155426
 20
237.398178
 30
0.0
  0
VERTEX
  5
225
330
20F
100
AcDbEntity
  8
0
370
     0
100
AcDbVertex
100
AcDb2dVertex
 10
448.891388
 20
239.388138
 30
0.0
  0
VERTEX
  5
226
330
20F
100
AcDbEntity
  8
0
370
     0
100
AcDbVertex
100
AcDb2dVertex
 10
449.095093
 20
241.003662
 30
0.0
  0
SEQEND
  5
227
330
20F
100
AcDbEntity
  8
0
 62
     7
370
    70
  0
POLYLINE
  5
228
330
1F
100
AcDbEntity
  8
0
 62
     7
370
    70
100
AcDb2dPolyline
 66
     1
 10
0.0
 20
0.0
 30
0.0
 70
     1
  0
VERTEX
  5
229
330
228
100
AcDbEntity
  8
0
370
     0
100
AcDbVertex
100
AcDb2dVertex
 10
472.19104
 20
236.841614
 30
0.0
  0
VERTEX
  5
22A
330
228
100
AcDbEntity
  8
0
370
     0
100
AcDbVertex
100
AcDb2dVertex
 10
469.869629
 20
237.954926
 30
0.0
  0
VERTEX
  5
22B
330
228
100
AcDbEntity
  8
0
370
     0
100
AcDbVertex
100
AcDb2dVertex
 10
467.196716
 20
237.281982
 30
0.0
  0
VERTEX
  5
22C
330
228
100
AcDbEntity
  8
0
370
     0
100
AcDbVertex
100
AcDb2dVertex
 10
465.206726
 20
236.017944
 30
0.0
  0
VERTEX
  5
22D
330
228
100
AcDbEntity
  8
0
370
     0
100
AcDbVertex
100
AcDb2dVertex
 10
463.285675
 20
233.79837
 30
0.0
  0
VERTEX
  5
22E
330
228
100
AcDbEntity
  8
0
370
     0
100
AcDbVertex
100
AcDb2dVertex
 10
461.876801
 20
231.135468
 30
0.0
  0
VERTEX
  5
22F
330
228
100
AcDbEntity
  8
0
370
     0
100
AcDbVertex
100
AcDb2dVertex
 10
461.594208
 20
228.393677
 30
0.0
  0
VERTEX
  5
230
330
228
100
AcDbEntity
  8
0
370
     0
100
AcDbVertex
100
AcDb2dVertex
 10
463.028992
 20
226.255936
 30
0.0
  0
VERTEX
  5
231
330
228
100
AcDbEntity
  8
0
370
     0
100
AcDbVertex
100
AcDb2dVertex
 10
464.394867
 20
225.07373
 30
0.0
  0
VERTEX
  5
232
330
228
100
AcDbEntity
  8
0
370
     0
100
AcDbVertex
100
AcDb2dVertex
 10
466.716309
 20
223.960419
 30
0.0
  0
VERTEX
  5
233
330
228
100
AcDbEntity
  8
0
370
     0
100
AcDbVertex
100
AcDb2dVertex
 10
469.389221
 20
224.633362
 30
0.0
  0
VERTEX
  5
234
330
228
100
AcDbEntity
  8
0
370
     0
100
AcDbVertex
100
AcDb2dVertex
 10
471.674744
 20
226.238876
 30
0.0
  0
VERTEX
  5
235
330
228
100
AcDbEntity
  8
0
370
     0
100
AcDbVertex
100
AcDb2dVertex
 10
473.743591
 20
228.629196
 30
0.0
  0
VERTEX
  5
236
330
228
100
AcDbEntity
  8
0
370
     0
100
AcDbVertex
100
AcDb2dVertex
 10
474.709106
 20
230.779877
 30
0.0
  0
VERTEX
  5
237
330
228
100
AcDbEntity
  8
0
370
     0
100
AcDbVertex
100
AcDb2dVertex
 10
474.991699
 20
233.521667
 30
0.0
  0
VERTEX
  5
238
330
228
100
AcDbEntity
  8
0
370
     0
100
AcDbVertex
100
AcDb2dVertex
 10
473.556946
 20
235.659424
 30
0.0
  0
SEQEND
  5
239
330
228
100
AcDbEntity
  8
0
 62
     7
370
    70
  0
POLYLINE
  5
23A
330
1F
100
AcDbEntity
  8
0
 62
     7
370
    70
100
AcDb2dPolyline
 66
     1
 10
0.0
 20
0.0
 30
0.0
  0
VERTEX
  5
23B
330
23A
100
AcDbEntity
  8
0
370
     0
100
AcDbVertex
100
AcDb2dVertex
 10
450.878204
 20
255.288177
 30
0.0
  0
VERTEX
  5
23C
330
23A
100
AcDbEntity
  8
0
370
     0
100
AcDbVertex
100
AcDb2dVertex
 10
445.073151
 20
260.312531
 30
0.0
  0
SEQEND
  5
23D
330
23A
100
AcDbEntity
  8
0
 62
     7
370
    70
  0
POLYLINE
  5
23E
330
1F
100
AcDbEntity
  8
0
 62
     7
370
    70
100
AcDb2dPolyline
 66
     1
 10
0.0
 20
0.0
 30
0.0
  0
VERTEX
  5
23F
330
23E
100
AcDbEntity
  8
0
370
     0
100
AcDbVertex
100
AcDb2dVertex
 10
440.639893
 20
255.190414
 30
0.0
  0
VERTEX
  5
240
330
23E
100
AcDbEntity
  8
0
370
     0
100
AcDbVertex
100
AcDb2dVertex
 10
446.786438
 20
249.870514
 30
0.0
  0
SEQEND
  5
241
330
23E
100
AcDbEntity
  8
0
 62
     7
370
    70
  0
POLYLINE
  5
242
330
1F
100
AcDbEntity
  8
0
 62
     7
370
    70
100
AcDb2dPolyline
 66
     1
 10
0.0
 20
0.0
 30
0.0
  0
VERTEX
  5
243
330
242
100
AcDbEntity
  8
0
370
     0
100
AcDbVertex
100
AcDb2dVertex
 10
445.073151
 20
260.312531
 30
0.0
  0
VERTEX
  5
244
330
242
100
AcDbEntity
  8
0
370
     0
100
AcDbVertex
100
AcDb2dVertex
 10
435.911102
 20
249.726837
 30
0.0
  0
SEQEND
  5
245
330
242
100
AcDbEntity
  8
0
 62
     7
370
    70
  0
POLYLINE
  5
246
330
1F
100
AcDbEntity
  8
0
 62
     7
370
    70
100
AcDb2dPolyline
 66
     1
 10
0.0
 20
0.0
 30
0.0
  0
VERTEX
  5
247
330
246
100
AcDbEntity
  8
0
370
     0
100
AcDbVertex
100
AcDb2dVertex
 10
450.878204
 20
255.288177
 30
0.0
  0
VERTEX
  5
248
330
246
100
AcDbEntity
  8
0
370
     0
100
AcDbVertex
100
AcDb2dVertex
 10
451.630035
 20
253.741531
 30
0.0
  0
VERTEX
  5
249
330
246
100
AcDbEntity
  8
0
370
     0
100
AcDbVertex
100
AcDb2dVertex
 10
451.790771
 20
251.511948
 30
0.0
  0
VERTEX
  5
24A
330
246
100
AcDbEntity
  8
0
370
     0
100
AcDbVertex
100
AcDb2dVertex
 10
450.313019
 20
249.804581
 30
0.0
  0
VERTEX
  5
24B
330
246
100
AcDbEntity
  8
0
370
     0
100
AcDbVertex
100
AcDb2dVertex
 10
448.572693
 20
249.519043
 30
0.0
  0
VERTEX
  5
24C
330
246
100
AcDbEntity
  8
0
370
     0
100
AcDbVertex
100
AcDb2dVertex
 10
446.786438
 20
249.870514
 30
0.0
  0
SEQEND
  5
24D
330
246
100
AcDbEntity
  8
0
 62
     7
370
    70
  0
POLYLINE
  5
24E
330
1F
100
AcDbEntity
  8
0
 62
     7
370
    70
100
AcDb2dPolyline
 66
     1
 10
0.0
 20
0.0
 30
0.0
  0
VERTEX
  5
24F
330
24E
100
AcDbEntity
  8
0
370
     0
100
AcDbVertex
100
AcDb2dVertex
 10
445.420532
 20
251.052719
 30
0.0
  0
VERTEX
  5
250
330
24E
100
AcDbEntity
  8
0
370
     0
100
AcDbVertex
100
AcDb2dVertex
 10
444.106445
 20
242.633636
 30
0.0
  0
SEQEND
  5
251
330
24E
100
AcDbEntity
  8
0
 62
     7
370
    70
  0
POLYLINE
  5
252
330
1F
100
AcDbEntity
  8
0
 62
     7
370
    35
100
AcDb2dPolyline
 66
     1
 10
0.0
 20
0.0
 30
0.0
  0
VERTEX
  5
253
330
252
100
AcDbEntity
  8
0
370
     0
100
AcDbVertex
100
AcDb2dVertex
 10
485.331024
 20
203.623535
 30
0.0
  0
VERTEX
  5
254
330
252
100
AcDbEntity
  8
0
370
     0
100
AcDbVertex
100
AcDb2dVertex
 10
487.130493
 20
202.750671
 30
0.0
  0
VERTEX
  5
255
330
252
100
AcDbEntity
  8
0
370
     0
100
AcDbVertex
100
AcDb2dVertex
 10
486.008545
 20
204.406342
 30
0.0
  0
SEQEND
  5
256
330
252
100
AcDbEntity
  8
0
 62
     7
370
    35
  0
LINE
  5
257
330
1F
100
AcDbEntity
  8
0
 62
     7
370
    35
100
AcDbLine
 10
487.130493
 20
202.750671
 30
0.0
 11
433.919312
 21
248.805695
 31
0.0
  0
POLYLINE
  5
258
330
1F
100
AcDbEntity
  8
0
 62
     7
370
    70
100
AcDb2dPolyline
 66
     1
 10
0.0
 20
0.0
 30
0.0
  0
VERTEX
  5
259
330
258
100
AcDbEntity
  8
0
370
     0
100
AcDbVertex
100
AcDb2dVertex
 10
536.566284
 20
422.593628
 30
0.0
  0
VERTEX
  5
25A
330
258
100
AcDbEntity
  8
0
370
     0
100
AcDbVertex
100
AcDb2dVertex
 10
537.488892
 20
425.523071
 30
0.0
  0
VERTEX
  5
25B
330
258
100
AcDbEntity
  8
0
370
     0
100
AcDbVertex
100
AcDb2dVertex
 10
545.814697
 20
414.267822
 30
0.0
  0
SEQEND
  5
25C
330
258
100
AcDbEntity
  8
0
 62
     7
370
    70
  0
POLYLINE
  5
25D
330
1F
100
AcDbEntity
  8
0
 62
     7
370
    70
100
AcDb2dPolyline
 66
     1
 10
0.0
 20
0.0
 30
0.0
  0
VERTEX
  5
25E
330
25D
100
AcDbEntity
  8
0
370
     0
100
AcDbVertex
100
AcDb2dVertex
 10
535.879883
 20
421.243286
 30
0.0
  0
VERTEX
  5
25F
330
25D
100
AcDbEntity
  8
0
370
     0
100
AcDbVertex
100
AcDb2dVertex
 10
536.566284
 20
422.593628
 30
0.0
  0
SEQEND
  5
260
330
25D
100
AcDbEntity
  8
0
 62
     7
370
    70
  0
POLYLINE
  5
261
330
1F
100
AcDbEntity
  8
0
 62
     7
370
    70
100
AcDb2dPolyline
 66
     1
 10
0.0
 20
0.0
 30
0.0
  0
VERTEX
  5
262
330
261
100
AcDbEntity
  8
0
370
     0
100
AcDbVertex
100
AcDb2dVertex
 10
549.709534
 20
432.31601
 30
0.0
  0
VERTEX
  5
263
330
261
100
AcDbEntity
  8
0
370
     0
100
AcDbVertex
100
AcDb2dVertex
 10
550.632141
 20
435.245453
 30
0.0
  0
VERTEX
  5
264
330
261
100
AcDbEntity
  8
0
370
     0
100
AcDbVertex
100
AcDb2dVertex
 10
558.957947
 20
423.990173
 30
0.0
  0
SEQEND
  5
265
330
261
100
AcDbEntity
  8
0
 62
     7
370
    70
  0
POLYLINE
  5
266
330
1F
100
AcDbEntity
  8
0
 62
     7
370
    70
100
AcDb2dPolyline
 66
     1
 10
0.0
 20
0.0
 30
0.0
  0
VERTEX
  5
267
330
266
100
AcDbEntity
  8
0
370
     0
100
AcDbVertex
100
AcDb2dVertex
 10
549.023193
 20
430.965668
 30
0.0
  0
VERTEX
  5
268
330
266
100
AcDbEntity
  8
0
370
     0
100
AcDbVertex
100
AcDb2dVertex
 10
549.709534
 20
432.31601
 30
0.0
  0
SEQEND
  5
269
330
266
100
AcDbEntity
  8
0
 62
     7
370
    70
  0
POLYLINE
  5
26A
330
1F
100
AcDbEntity
  8
0
 62
     7
370
    70
100
AcDb2dPolyline
 66
     1
 10
0.0
 20
0.0
 30
0.0
  0
VERTEX
  5
26B
330
26A
100
AcDbEntity
  8
0
370
     0
100
AcDbVertex
100
AcDb2dVertex
 10
565.904053
 20
432.218018
 30
0.0
  0
VERTEX
  5
26C
330
26A
100
AcDbEntity
  8
0
370
     0
100
AcDbVertex
100
AcDb2dVertex
 10
567.120117
 20
431.713196
 30
0.0
  0
VERTEX
  5
26D
330
26A
100
AcDbEntity
  8
0
370
     0
100
AcDbVertex
100
AcDb2dVertex
 10
568.067627
 20
431.571472
 30
0.0
  0
VERTEX
  5
26E
330
26A
100
AcDbEntity
  8
0
370
     0
100
AcDbVertex
100
AcDb2dVertex
 10
570.467346
 20
432.503998
 30
0.0
  0
VERTEX
  5
26F
330
26A
100
AcDbEntity
  8
0
370
     0
100
AcDbVertex
100
AcDb2dVertex
 10
572.464233
 20
433.981171
 30
0.0
  0
VERTEX
  5
270
330
26A
100
AcDbEntity
  8
0
370
     0
100
AcDbVertex
100
AcDb2dVertex
 10
574.239868
 20
436.137207
 30
0.0
  0
VERTEX
  5
271
330
26A
100
AcDbEntity
  8
0
370
     0
100
AcDbVertex
100
AcDb2dVertex
 10
574.523315
 20
438.032166
 30
0.0
  0
VERTEX
  5
272
330
26A
100
AcDbEntity
  8
0
370
     0
100
AcDbVertex
100
AcDb2dVertex
 10
573.859375
 20
440.068848
 30
0.0
  0
VERTEX
  5
273
330
26A
100
AcDbEntity
  8
0
370
     0
100
AcDbVertex
100
AcDb2dVertex
 10
573.05365
 20
441.158081
 30
0.0
  0
VERTEX
  5
274
330
26A
100
AcDbEntity
  8
0
370
     0
100
AcDbVertex
100
AcDb2dVertex
 10
571.300415
 20
442.389038
 30
0.0
  0
VERTEX
  5
275
330
26A
100
AcDbEntity
  8
0
370
     0
100
AcDbVertex
100
AcDb2dVertex
 10
569.539795
 20
442.490997
 30
0.0
  0
VERTEX
  5
276
330
26A
100
AcDbEntity
  8
0
370
     0
100
AcDbVertex
100
AcDb2dVertex
 10
566.958496
 20
441.424164
 30
0.0
  0
VERTEX
  5
277
330
26A
100
AcDbEntity
  8
0
370
     0
100
AcDbVertex
100
AcDb2dVertex
 10
564.961609
 20
439.946991
 30
0.0
  0
VERTEX
  5
278
330
26A
100
AcDbEntity
  8
0
370
     0
100
AcDbVertex
100
AcDb2dVertex
 10
563.730591
 20
438.193817
 30
0.0
  0
VERTEX
  5
279
330
26A
100
AcDbEntity
  8
0
370
     0
100
AcDbVertex
100
AcDb2dVertex
 10
563.588867
 20
437.246338
 30
0.0
  0
VERTEX
  5
27A
330
26A
100
AcDbEntity
  8
0
370
     0
100
AcDbVertex
100
AcDb2dVertex
 10
560.50769
 20
442.55069
 30
0.0
  0
VERTEX
  5
27B
330
26A
100
AcDbEntity
  8
0
370
     0
100
AcDbVertex
100
AcDb2dVertex
 10
567.224609
 20
447.519318
 30
0.0
  0
SEQEND
  5
27C
330
26A
100
AcDbEntity
  8
0
 62
     7
370
    70
  0
POLYLINE
  5
27D
330
1F
100
AcDbEntity
  8
0
 62
     7
370
    70
100
AcDb2dPolyline
 66
     1
 10
0.0
 20
0.0
 30
0.0
  0
VERTEX
  5
27E
330
27D
100
AcDbEntity
  8
0
370
     0
100
AcDbVertex
100
AcDb2dVertex
 10
526.881958
 20
417.67688
 30
0.0
  0
VERTEX
  5
27F
330
27D
100
AcDbEntity
  8
0
370
     0
100
AcDbVertex
100
AcDb2dVertex
 10
520.709717
 20
413.111115
 30
0.0
  0
SEQEND
  5
280
330
27D
100
AcDbEntity
  8
0
 62
     7
370
    70
  0
POLYLINE
  5
281
330
1F
100
AcDbEntity
  8
0
 62
     7
370
    70
100
AcDb2dPolyline
 66
     1
 10
0.0
 20
0.0
 30
0.0
  0
VERTEX
  5
282
330
281
100
AcDbEntity
  8
0
370
     0
100
AcDbVertex
100
AcDb2dVertex
 10
524.738342
 20
407.665009
 30
0.0
  0
VERTEX
  5
283
330
281
100
AcDbEntity
  8
0
370
     0
100
AcDbVertex
100
AcDb2dVertex
 10
531.273682
 20
412.499329
 30
0.0
  0
SEQEND
  5
284
330
281
100
AcDbEntity
  8
0
 62
     7
370
    70
  0
POLYLINE
  5
285
330
1F
100
AcDbEntity
  8
0
 62
     7
370
    70
100
AcDb2dPolyline
 66
     1
 10
0.0
 20
0.0
 30
0.0
  0
VERTEX
  5
286
330
285
100
AcDbEntity
  8
0
370
     0
100
AcDbVertex
100
AcDb2dVertex
 10
520.709717
 20
413.111115
 30
0.0
  0
VERTEX
  5
287
330
285
100
AcDbEntity
  8
0
370
     0
100
AcDbVertex
100
AcDb2dVertex
 10
529.035522
 20
401.855835
 30
0.0
  0
SEQEND
  5
288
330
285
100
AcDbEntity
  8
0
 62
     7
370
    70
  0
POLYLINE
  5
289
330
1F
100
AcDbEntity
  8
0
 62
     7
370
    70
100
AcDb2dPolyline
 66
     1
 10
0.0
 20
0.0
 30
0.0
  0
VERTEX
  5
28A
330
289
100
AcDbEntity
  8
0
370
     0
100
AcDbVertex
100
AcDb2dVertex
 10
526.881958
 20
417.67688
 30
0.0
  0
VERTEX
  5
28B
330
289
100
AcDbEntity
  8
0
370
     0
100
AcDbVertex
100
AcDb2dVertex
 10
528.555603
 20
418.072266
 30
0.0
  0
VERTEX
  5
28C
330
289
100
AcDbEntity
  8
0
370
     0
100
AcDbVertex
100
AcDb2dVertex
 10
530.766357
 20
417.741516
 30
0.0
  0
VERTEX
  5
28D
330
289
100
AcDbEntity
  8
0
370
     0
100
AcDbVertex
100
AcDb2dVertex
 10
532.109253
 20
415.926147
 30
0.0
  0
VERTEX
  5
28E
330
289
100
AcDbEntity
  8
0
370
     0
100
AcDbVertex
100
AcDb2dVertex
 10
532.007263
 20
414.165497
 30
0.0
  0
VERTEX
  5
28F
330
289
100
AcDbEntity
  8
0
370
     0
100
AcDbVertex
100
AcDb2dVertex
 10
531.273682
 20
412.499329
 30
0.0
  0
SEQEND
  5
290
330
289
100
AcDbEntity
  8
0
 62
     7
370
    70
  0
POLYLINE
  5
291
330
1F
100
AcDbEntity
  8
0
 62
     7
370
    70
100
AcDb2dPolyline
 66
     1
 10
0.0
 20
0.0
 30
0.0
  0
VERTEX
  5
292
330
291
100
AcDbEntity
  8
0
370
     0
100
AcDbVertex
100
AcDb2dVertex
 10
529.82135
 20
411.425049
 30
0.0
  0
VERTEX
  5
293
330
291
100
AcDbEntity
  8
0
370
     0
100
AcDbVertex
100
AcDb2dVertex
 10
537.749268
 20
408.301636
 30
0.0
  0
SEQEND
  5
294
330
291
100
AcDbEntity
  8
0
 62
     7
370
    70
  0
POLYLINE
  5
295
330
1F
100
AcDbEntity
  8
0
 62
     7
370
    35
100
AcDb2dPolyline
 66
     1
 10
0.0
 20
0.0
 30
0.0
  0
VERTEX
  5
296
330
295
100
AcDbEntity
  8
0
370
     0
100
AcDbVertex
100
AcDb2dVertex
 10
500.578674
 20
378.961731
 30
0.0
  0
VERTEX
  5
297
330
295
100
AcDbEntity
  8
0
370
     0
100
AcDbVertex
100
AcDb2dVertex
 10
499.333374
 20
377.396667
 30
0.0
  0
VERTEX
  5
298
330
295
100
AcDbEntity
  8
0
370
     0
100
AcDbVertex
100
AcDb2dVertex
 10
501.194336
 20
378.129395
 30
0.0
  0
SEQEND
  5
299
330
295
100
AcDbEntity
  8
0
 62
     7
370
    35
  0
LINE
  5
29A
330
1F
100
AcDbEntity
  8
0
 62
     7
370
    35
100
AcDbLine
 10
453.106415
 20
343.201416
 30
0.0
 11
578.373596
 21
435.864746
 31
0.0
  0
ARC
  5
29B
330
1F
100
AcDbEntity
  8
0
 62
     7
370
    35
100
AcDbCircle
 10
453.106415
 20
343.201416
 30
0.0
 40
57.5
100
AcDbArc
 50
0.0
 51
90.000003
  0
LINE
  5
29C
330
1F
100
AcDbEntity
  8
0
 62
     7
370
    35
100
AcDbLine
 10
510.606415
 20
232.201416
 30
0.0
 11
510.606415
 21
343.201416
 31
0.0
  0
ARC
  5
29D
330
1F
100
AcDbEntity
  8
0
 62
     7
370
    35
100
AcDbCircle
 10
453.106415
 20
232.201416
 30
0.0
 40
57.5
100
AcDbArc
 50
269.999997
 51
0.0
  0
LINE
  5
29E
330
1F
100
AcDbEntity
  8
0
 62
     7
370
    35
100
AcDbLine
 10
275.106415
 20
174.701416
 30
0.0
 11
453.106415
 21
174.701416
 31
0.0
  0
ARC
  5
29F
330
1F
100
AcDbEntity
  8
0
 62
     7
370
    35
100
AcDbCircle
 10
275.106415
 20
232.201416
 30
0.0
 40
57.5
100
AcDbArc
 50
180.000005
 51
269.999997
  0
LINE
  5
2A0
330
1F
100
AcDbEntity
  8
0
 62
     7
370
    35
100
AcDbLine
 10
217.606415
 20
343.201416
 30
0.0
 11
217.606415
 21
232.201416
 31
0.0
  0
ARC
  5
2A1
330
1F
100
AcDbEntity
  8
0
 62
     7
370
    35
100
AcDbCircle
 10
275.106415
 20
343.201416
 30
0.0
 40
57.5
100
AcDbArc
 50
90.000003
 51
180.000005
  0
LINE
  5
2A2
330
1F
100
AcDbEntity
  8
0
 62
     7
370
    35
100
AcDbLine
 10
453.106415
 20
400.701416
 30
0.0
 11
275.106415
 21
400.701416
 31
0.0
  0
ARC
  5
2A3
330
1F
100
AcDbEntity
  8
0
 62
     7
370
    35
100
AcDbCircle
 10
364.106415
 20
287.701416
 30
0.0
 40
22.5
100
AcDbArc
 50
269.999997
 51
90.000003
  0
ARC
  5
2A4
330
1F
100
AcDbEntity
  8
0
 62
     7
370
    35
100
AcDbCircle
 10
364.106415
 20
287.701416
 30
0.0
 40
22.5
100
AcDbArc
 50
90.000003
 51
269.999997
  0
LINE
  5
2A5
330
1F
100
AcDbEntity
  8
0
 62
     7
370
    35
100
AcDbLine
 10
275.190613
 20
187.201416
 30
0.0
 11
453.022217
 21
187.201416
 31
0.0
  0
POLYLINE
  5
2A6
330
1F
100
AcDbEntity
  8
0
 62
     7
370
    35
100
AcDb2dPolyline
 66
     1
 10
0.0
 20
0.0
 30
0.0
  0
VERTEX
  5
2A7
330
2A6
100
AcDbEntity
  8
0
370
     0
100
AcDbVertex
100
AcDb2dVertex
 10
230.106415
 20
232.28476
 30
0.0
  0
VERTEX
  5
2A8
330
2A6
100
AcDbEntity
  8
0
370
     0
100
AcDbVertex
100
AcDb2dVertex
 10
230.203995
 20
230.189819
 30
0.0
  0
VERTEX
  5
2A9
330
2A6
100
AcDbEntity
  8
0
370
     0
100
AcDbVertex
100
AcDb2dVertex
 10
230.264191
 20
229.143097
 30
0.0
  0
VERTEX
  5
2AA
330
2A6
100
AcDbEntity
  8
0
370
     0
100
AcDbVertex
100
AcDb2dVertex
 10
230.381531
 20
227.575546
 30
0.0
  0
VERTEX
  5
2AB
330
2A6
100
AcDbEntity
  8
0
370
     0
100
AcDbVertex
100
AcDb2dVertex
 10
230.499008
 20
226.403168
 30
0.0
  0
VERTEX
  5
2AC
330
2A6
100
AcDbEntity
  8
0
370
     0
100
AcDbVertex
100
AcDb2dVertex
 10
230.648895
 20
225.234848
 30
0.0
  0
VERTEX
  5
2AD
330
2A6
100
AcDbEntity
  8
0
370
     0
100
AcDbVertex
100
AcDb2dVertex
 10
230.881729
 20
223.820831
 30
0.0
  0
VERTEX
  5
2AE
330
2A6
100
AcDbEntity
  8
0
370
     0
100
AcDbVertex
100
AcDb2dVertex
 10
231.168579
 20
222.415726
 30
0.0
  0
VERTEX
  5
2AF
330
2A6
100
AcDbEntity
  8
0
370
     0
100
AcDbVertex
100
AcDb2dVertex
 10
231.505844
 20
221.021179
 30
0.0
  0
VERTEX
  5
2B0
330
2A6
100
AcDbEntity
  8
0
370
     0
100
AcDbVertex
100
AcDb2dVertex
 10
231.889969
 20
219.638672
 30
0.0
  0
VERTEX
  5
2B1
330
2A6
100
AcDbEntity
  8
0
370
     0
100
AcDbVertex
100
AcDb2dVertex
 10
232.439163
 20
217.904144
 30
0.0
  0
VERTEX
  5
2B2
330
2A6
100
AcDbEntity
  8
0
370
     0
100
AcDbVertex
100
AcDb2dVertex
 10
233.053207
 20
216.194611
 30
0.0
  0
VERTEX
  5
2B3
330
2A6
100
AcDbEntity
  8
0
370
     0
100
AcDbVertex
100
AcDb2dVertex
 10
233.733643
 20
214.508484
 30
0.0
  0
VERTEX
  5
2B4
330
2A6
100
AcDbEntity
  8
0
370
     0
100
AcDbVertex
100
AcDb2dVertex
 10
234.368622
 20
213.087891
 30
0.0
  0
VERTEX
  5
2B5
330
2A6
100
AcDbEntity
  8
0
370
     0
100
AcDbVertex
100
AcDb2dVertex
 10
235.052032
 20
211.691071
 30
0.0
  0
VERTEX
  5
2B6
330
2A6
100
AcDbEntity
  8
0
370
     0
100
AcDbVertex
100
AcDb2dVertex
 10
235.784561
 20
210.318085
 30
0.0
  0
VERTEX
  5
2B7
330
2A6
100
AcDbEntity
  8
0
370
     0
100
AcDbVertex
100
AcDb2dVertex
 10
236.63913
 20
208.848587
 30
0.0
  0
VERTEX
  5
2B8
330
2A6
100
AcDbEntity
  8
0
370
     0
100
AcDbVertex
100
AcDb2dVertex
 10
237.549011
 20
207.412445
 30
0.0
  0
VERTEX
  5
2B9
330
2A6
100
AcDbEntity
  8
0
370
     0
100
AcDbVertex
100
AcDb2dVertex
 10
238.512543
 20
206.011658
 30
0.0
  0
VERTEX
  5
2BA
330
2A6
100
AcDbEntity
  8
0
370
     0
100
AcDbVertex
100
AcDb2dVertex
 10
239.528152
 20
204.648239
 30
0.0
  0
VERTEX
  5
2BB
330
2A6
100
AcDbEntity
  8
0
370
     0
100
AcDbVertex
100
AcDb2dVertex
 10
240.594299
 20
203.324127
 30
0.0
  0
VERTEX
  5
2BC
330
2A6
100
AcDbEntity
  8
0
370
     0
100
AcDbVertex
100
AcDb2dVertex
 10
241.782684
 20
201.960403
 30
0.0
  0
VERTEX
  5
2BD
330
2A6
100
AcDbEntity
  8
0
370
     0
100
AcDbVertex
100
AcDb2dVertex
 10
243.024445
 20
200.645996
 30
0.0
  0
VERTEX
  5
2BE
330
2A6
100
AcDbEntity
  8
0
370
     0
100
AcDbVertex
100
AcDb2dVertex
 10
244.317719
 20
199.38298
 30
0.0
  0
VERTEX
  5
2BF
330
2A6
100
AcDbEntity
  8
0
370
     0
100
AcDbVertex
100
AcDb2dVertex
 10
245.660736
 20
198.172958
 30
0.0
  0
VERTEX
  5
2C0
330
2A6
100
AcDbEntity
  8
0
370
     0
100
AcDbVertex
100
AcDb2dVertex
 10
247.051666
 20
197.017441
 30
0.0
  0
VERTEX
  5
2C1
330
2A6
100
AcDbEntity
  8
0
370
     0
100
AcDbVertex
100
AcDb2dVertex
 10
248.488327
 20
195.918167
 30
0.0
  0
VERTEX
  5
2C2
330
2A6
100
AcDbEntity
  8
0
370
     0
100
AcDbVertex
100
AcDb2dVertex
 10
249.753052
 20
195.023026
 30
0.0
  0
VERTEX
  5
2C3
330
2A6
100
AcDbEntity
  8
0
370
     0
100
AcDbVertex
100
AcDb2dVertex
 10
251.047791
 20
194.171936
 30
0.0
  0
VERTEX
  5
2C4
330
2A6
100
AcDbEntity
  8
0
370
     0
100
AcDbVertex
100
AcDb2dVertex
 10
252.371094
 20
193.366074
 30
0.0
  0
VERTEX
  5
2C5
330
2A6
100
AcDbEntity
  8
0
370
     0
100
AcDbVertex
100
AcDb2dVertex
 10
253.721451
 20
192.606689
 30
0.0
  0
VERTEX
  5
2C6
330
2A6
100
AcDbEntity
  8
0
370
     0
100
AcDbVertex
100
AcDb2dVertex
 10
255.090988
 20
191.898148
 30
0.0
  0
VERTEX
  5
2C7
330
2A6
100
AcDbEntity
  8
0
370
     0
100
AcDbVertex
100
AcDb2dVertex
 10
256.485657
 20
191.236938
 30
0.0
  0
VERTEX
  5
2C8
330
2A6
100
AcDbEntity
  8
0
370
     0
100
AcDbVertex
100
AcDb2dVertex
 10
257.902161
 20
190.623657
 30
0.0
  0
VERTEX
  5
2C9
330
2A6
100
AcDbEntity
  8
0
370
     0
100
AcDbVertex
100
AcDb2dVertex
 10
259.337128
 20
190.058594
 30
0.0
  0
VERTEX
  5
2CA
330
2A6
100
AcDbEntity
  8
0
370
     0
100
AcDbVertex
100
AcDb2dVertex
 10
260.576813
 20
189.613495
 30
0.0
  0
VERTEX
  5
2CB
330
2A6
100
AcDbEntity
  8
0
370
     0
100
AcDbVertex
100
AcDb2dVertex
 10
261.832977
 20
189.201248
 30
0.0
  0
VERTEX
  5
2CC
330
2A6
100
AcDbEntity
  8
0
370
     0
100
AcDbVertex
100
AcDb2dVertex
 10
263.096008
 20
188.82579
 30
0.0
  0
VERTEX
  5
2CD
330
2A6
100
AcDbEntity
  8
0
370
     0
100
AcDbVertex
100
AcDb2dVertex
 10
264.557465
 20
188.441895
 30
0.0
  0
VERTEX
  5
2CE
330
2A6
100
AcDbEntity
  8
0
370
     0
100
AcDbVertex
100
AcDb2dVertex
 10
266.03183
 20
188.111694
 30
0.0
  0
VERTEX
  5
2CF
330
2A6
100
AcDbEntity
  8
0
370
     0
100
AcDbVertex
100
AcDb2dVertex
 10
267.516724
 20
187.839478
 30
0.0
  0
VERTEX
  5
2D0
330
2A6
100
AcDbEntity
  8
0
370
     0
100
AcDbVertex
100
AcDb2dVertex
 10
268.41452
 20
187.705383
 30
0.0
  0
VERTEX
  5
2D1
330
2A6
100
AcDbEntity
  8
0
370
     0
100
AcDbVertex
100
AcDb2dVertex
 10
269.323761
 20
187.592255
 30
0.0
  0
VERTEX
  5
2D2
330
2A6
100
AcDbEntity
  8
0
370
     0
100
AcDbVertex
100
AcDb2dVertex
 10
270.545258
 20
187.470917
 30
0.0
  0
VERTEX
  5
2D3
330
2A6
100
AcDbEntity
  8
0
370
     0
100
AcDbVertex
100
AcDb2dVertex
 10
271.756714
 20
187.378204
 30
0.0
  0
VERTEX
  5
2D4
330
2A6
100
AcDbEntity
  8
0
370
     0
100
AcDbVertex
100
AcDb2dVertex
 10
272.900452
 20
187.309357
 30
0.0
  0
VERTEX
  5
2D5
330
2A6
100
AcDbEntity
  8
0
370
     0
100
AcDbVertex
100
AcDb2dVertex
 10
275.190613
 20
187.201416
 30
0.0
  0
SEQEND
  5
2D6
330
2A6
100
AcDbEntity
  8
0
 62
     7
370
    35
  0
LINE
  5
2D7
330
1F
100
AcDbEntity
  8
0
 62
     7
370
    35
100
AcDbLine
 10
230.106415
 20
343.118073
 30
0.0
 11
230.106415
 21
232.28476
 31
0.0
  0
LINE
  5
2D8
330
1F
100
AcDbEntity
  8
0
 62
     7
370
    35
100
AcDbLine
 10
498.106415
 20
232.28476
 30
0.0
 11
498.106415
 21
343.118073
 31
0.0
  0
POLYLINE
  5
2D9
330
1F
100
AcDbEntity
  8
0
 62
     7
370
    35
100
AcDb2dPolyline
 66
     1
 10
0.0
 20
0.0
 30
0.0
  0
VERTEX
  5
2DA
330
2D9
100
AcDbEntity
  8
0
370
     0
100
AcDbVertex
100
AcDb2dVertex
 10
230.106415
 20
343.118073
 30
0.0
  0
VERTEX
  5
2DB
330
2D9
100
AcDbEntity
  8
0
370
     0
100
AcDbVertex
100
AcDb2dVertex
 10
230.203995
 20
345.213013
 30
0.0
  0
VERTEX
  5
2DC
330
2D9
100
AcDbEntity
  8
0
370
     0
100
AcDbVertex
100
AcDb2dVertex
 10
230.264191
 20
346.259735
 30
0.0
  0
VERTEX
  5
2DD
330
2D9
100
AcDbEntity
  8
0
370
     0
100
AcDbVertex
100
AcDb2dVertex
 10
230.381546
 20
347.827301
 30
0.0
  0
VERTEX
  5
2DE
330
2D9
100
AcDbEntity
  8
0
370
     0
100
AcDbVertex
100
AcDb2dVertex
 10
230.499008
 20
348.999664
 30
0.0
  0
VERTEX
  5
2DF
330
2D9
100
AcDbEntity
  8
0
370
     0
100
AcDbVertex
100
AcDb2dVertex
 10
230.648895
 20
350.167969
 30
0.0
  0
VERTEX
  5
2E0
330
2D9
100
AcDbEntity
  8
0
370
     0
100
AcDbVertex
100
AcDb2dVertex
 10
230.881729
 20
351.582001
 30
0.0
  0
VERTEX
  5
2E1
330
2D9
100
AcDbEntity
  8
0
370
     0
100
AcDbVertex
100
AcDb2dVertex
 10
231.168579
 20
352.987122
 30
0.0
  0
VERTEX
  5
2E2
330
2D9
100
AcDbEntity
  8
0
370
     0
100
AcDbVertex
100
AcDb2dVertex
 10
231.505844
 20
354.381653
 30
0.0
  0
VERTEX
  5
2E3
330
2D9
100
AcDbEntity
  8
0
370
     0
100
AcDbVertex
100
AcDb2dVertex
 10
231.889969
 20
355.76416
 30
0.0
  0
VERTEX
  5
2E4
330
2D9
100
AcDbEntity
  8
0
370
     0
100
AcDbVertex
100
AcDb2dVertex
 10
232.439163
 20
357.498718
 30
0.0
  0
VERTEX
  5
2E5
330
2D9
100
AcDbEntity
  8
0
370
     0
100
AcDbVertex
100
AcDb2dVertex
 10
233.053207
 20
359.208221
 30
0.0
  0
VERTEX
  5
2E6
330
2D9
100
AcDbEntity
  8
0
370
     0
100
AcDbVertex
100
AcDb2dVertex
 10
233.733643
 20
360.894348
 30
0.0
  0
VERTEX
  5
2E7
330
2D9
100
AcDbEntity
  8
0
370
     0
100
AcDbVertex
100
AcDb2dVertex
 10
234.368637
 20
362.314941
 30
0.0
  0
VERTEX
  5
2E8
330
2D9
100
AcDbEntity
  8
0
370
     0
100
AcDbVertex
100
AcDb2dVertex
 10
235.052032
 20
363.711761
 30
0.0
  0
VERTEX
  5
2E9
330
2D9
100
AcDbEntity
  8
0
370
     0
100
AcDbVertex
100
AcDb2dVertex
 10
235.784561
 20
365.084747
 30
0.0
  0
VERTEX
  5
2EA
330
2D9
100
AcDbEntity
  8
0
370
     0
100
AcDbVertex
100
AcDb2dVertex
 10
236.63913
 20
366.55426
 30
0.0
  0
VERTEX
  5
2EB
330
2D9
100
AcDbEntity
  8
0
370
     0
100
AcDbVertex
100
AcDb2dVertex
 10
237.549011
 20
367.990387
 30
0.0
  0
VERTEX
  5
2EC
330
2D9
100
AcDbEntity
  8
0
370
     0
100
AcDbVertex
100
AcDb2dVertex
 10
238.512543
 20
369.391174
 30
0.0
  0
VERTEX
  5
2ED
330
2D9
100
AcDbEntity
  8
0
370
     0
100
AcDbVertex
100
AcDb2dVertex
 10
239.528152
 20
370.754578
 30
0.0
  0
VERTEX
  5
2EE
330
2D9
100
AcDbEntity
  8
0
370
     0
100
AcDbVertex
100
AcDb2dVertex
 10
240.594299
 20
372.078705
 30
0.0
  0
VERTEX
  5
2EF
330
2D9
100
AcDbEntity
  8
0
370
     0
100
AcDbVertex
100
AcDb2dVertex
 10
241.782684
 20
373.442413
 30
0.0
  0
VERTEX
  5
2F0
330
2D9
100
AcDbEntity
  8
0
370
     0
100
AcDbVertex
100
AcDb2dVertex
 10
243.024445
 20
374.756836
 30
0.0
  0
VERTEX
  5
2F1
330
2D9
100
AcDbEntity
  8
0
370
     0
100
AcDbVertex
100
AcDb2dVertex
 10
244.317719
 20
376.019836
 30
0.0
  0
VERTEX
  5
2F2
330
2D9
100
AcDbEntity
  8
0
370
     0
100
AcDbVertex
100
AcDb2dVertex
 10
245.660736
 20
377.229889
 30
0.0
  0
VERTEX
  5
2F3
330
2D9
100
AcDbEntity
  8
0
370
     0
100
AcDbVertex
100
AcDb2dVertex
 10
247.051697
 20
378.385406
 30
0.0
  0
VERTEX
  5
2F4
330
2D9
100
AcDbEntity
  8
0
370
     0
100
AcDbVertex
100
AcDb2dVertex
 10
248.488342
 20
379.48468
 30
0.0
  0
VERTEX
  5
2F5
330
2D9
100
AcDbEntity
  8
0
370
     0
100
AcDbVertex
100
AcDb2dVertex
 10
249.753052
 20
380.379822
 30
0.0
  0
VERTEX
  5
2F6
330
2D9
100
AcDbEntity
  8
0
370
     0
100
AcDbVertex
100
AcDb2dVertex
 10
251.047806
 20
381.230896
 30
0.0
  0
VERTEX
  5
2F7
330
2D9
100
AcDbEntity
  8
0
370
     0
100
AcDbVertex
100
AcDb2dVertex
 10
252.371094
 20
382.036743
 30
0.0
  0
VERTEX
  5
2F8
330
2D9
100
AcDbEntity
  8
0
370
     0
100
AcDbVertex
100
AcDb2dVertex
 10
253.721451
 20
382.796143
 30
0.0
  0
VERTEX
  5
2F9
330
2D9
100
AcDbEntity
  8
0
370
     0
100
AcDbVertex
100
AcDb2dVertex
 10
255.090988
 20
383.5047
 30
0.0
  0
VERTEX
  5
2FA
330
2D9
100
AcDbEntity
  8
0
370
     0
100
AcDbVertex
100
AcDb2dVertex
 10
256.485657
 20
384.165894
 30
0.0
  0
VERTEX
  5
2FB
330
2D9
100
AcDbEntity
  8
0
370
     0
100
AcDbVertex
100
AcDb2dVertex
 10
257.902161
 20
384.779175
 30
0.0
  0
VERTEX
  5
2FC
330
2D9
100
AcDbEntity
  8
0
370
     0
100
AcDbVertex
100
AcDb2dVertex
 10
259.337158
 20
385.344238
 30
0.0
  0
VERTEX
  5
2FD
330
2D9
100
AcDbEntity
  8
0
370
     0
100
AcDbVertex
100
AcDb2dVertex
 10
260.576813
 20
385.789337
 30
0.0
  0
VERTEX
  5
2FE
330
2D9
100
AcDbEntity
  8
0
370
     0
100
AcDbVertex
100
AcDb2dVertex
 10
261.832977
 20
386.201599
 30
0.0
  0
VERTEX
  5
2FF
330
2D9
100
AcDbEntity
  8
0
370
     0
100
AcDbVertex
100
AcDb2dVertex
 10
263.096008
 20
386.577026
 30
0.0
  0
VERTEX
  5
300
330
2D9
100
AcDbEntity
  8
0
370
     0
100
AcDbVertex
100
AcDb2dVertex
 10
264.557495
 20
386.960938
 30
0.0
  0
VERTEX
  5
301
330
2D9
100
AcDbEntity
  8
0
370
     0
100
AcDbVertex
100
AcDb2dVertex
 10
266.03186
 20
387.291138
 30
0.0
  0
VERTEX
  5
302
330
2D9
100
AcDbEntity
  8
0
370
     0
100
AcDbVertex
100
AcDb2dVertex
 10
267.516754
 20
387.563354
 30
0.0
  0
VERTEX
  5
303
330
2D9
100
AcDbEntity
  8
0
370
     0
100
AcDbVertex
100
AcDb2dVertex
 10
268.41452
 20
387.697449
 30
0.0
  0
VERTEX
  5
304
330
2D9
100
AcDbEntity
  8
0
370
     0
100
AcDbVertex
100
AcDb2dVertex
 10
269.323761
 20
387.810577
 30
0.0
  0
VERTEX
  5
305
330
2D9
100
AcDbEntity
  8
0
370
     0
100
AcDbVertex
100
AcDb2dVertex
 10
270.545258
 20
387.931915
 30
0.0
  0
VERTEX
  5
306
330
2D9
100
AcDbEntity
  8
0
370
     0
100
AcDbVertex
100
AcDb2dVertex
 10
271.756714
 20
388.024628
 30
0.0
  0
VERTEX
  5
307
330
2D9
100
AcDbEntity
  8
0
370
     0
100
AcDbVertex
100
AcDb2dVertex
 10
272.900452
 20
388.093475
 30
0.0
  0
VERTEX
  5
308
330
2D9
100
AcDbEntity
  8
0
370
     0
100
AcDbVertex
100
AcDb2dVertex
 10
275.190613
 20
388.201416
 30
0.0
  0
SEQEND
  5
309
330
2D9
100
AcDbEntity
  8
0
 62
     7
370
    35
  0
POLYLINE
  5
30A
330
1F
100
AcDbEntity
  8
0
 62
     7
370
    35
100
AcDb2dPolyline
 66
     1
 10
0.0
 20
0.0
 30
0.0
  0
VERTEX
  5
30B
330
30A
100
AcDbEntity
  8
0
370
     0
100
AcDbVertex
100
AcDb2dVertex
 10
498.106415
 20
343.118073
 30
0.0
  0
VERTEX
  5
30C
330
30A
100
AcDbEntity
  8
0
370
     0
100
AcDbVertex
100
AcDb2dVertex
 10
498.00885
 20
345.213013
 30
0.0
  0
VERTEX
  5
30D
330
30A
100
AcDbEntity
  8
0
370
     0
100
AcDbVertex
100
AcDb2dVertex
 10
497.948639
 20
346.259735
 30
0.0
  0
VERTEX
  5
30E
330
30A
100
AcDbEntity
  8
0
370
     0
100
AcDbVertex
100
AcDb2dVertex
 10
497.831299
 20
347.827301
 30
0.0
  0
VERTEX
  5
30F
330
30A
100
AcDbEntity
  8
0
370
     0
100
AcDbVertex
100
AcDb2dVertex
 10
497.713806
 20
348.999664
 30
0.0
  0
VERTEX
  5
310
330
30A
100
AcDbEntity
  8
0
370
     0
100
AcDbVertex
100
AcDb2dVertex
 10
497.563934
 20
350.167969
 30
0.0
  0
VERTEX
  5
311
330
30A
100
AcDbEntity
  8
0
370
     0
100
AcDbVertex
100
AcDb2dVertex
 10
497.331116
 20
351.582001
 30
0.0
  0
VERTEX
  5
312
330
30A
100
AcDbEntity
  8
0
370
     0
100
AcDbVertex
100
AcDb2dVertex
 10
497.04425
 20
352.987122
 30
0.0
  0
VERTEX
  5
313
330
30A
100
AcDbEntity
  8
0
370
     0
100
AcDbVertex
100
AcDb2dVertex
 10
496.70697
 20
354.381653
 30
0.0
  0
VERTEX
  5
314
330
30A
100
AcDbEntity
  8
0
370
     0
100
AcDbVertex
100
AcDb2dVertex
 10
496.322876
 20
355.76416
 30
0.0
  0
VERTEX
  5
315
330
30A
100
AcDbEntity
  8
0
370
     0
100
AcDbVertex
100
AcDb2dVertex
 10
495.773682
 20
357.498688
 30
0.0
  0
VERTEX
  5
316
330
30A
100
AcDbEntity
  8
0
370
     0
100
AcDbVertex
100
AcDb2dVertex
 10
495.159607
 20
359.208221
 30
0.0
  0
VERTEX
  5
317
330
30A
100
AcDbEntity
  8
0
370
     0
100
AcDbVertex
100
AcDb2dVertex
 10
494.479187
 20
360.894348
 30
0.0
  0
VERTEX
  5
318
330
30A
100
AcDbEntity
  8
0
370
     0
100
AcDbVertex
100
AcDb2dVertex
 10
493.844208
 20
362.314941
 30
0.0
  0
VERTEX
  5
319
330
30A
100
AcDbEntity
  8
0
370
     0
100
AcDbVertex
100
AcDb2dVertex
 10
493.160797
 20
363.711761
 30
0.0
  0
VERTEX
  5
31A
330
30A
100
AcDbEntity
  8
0
370
     0
100
AcDbVertex
100
AcDb2dVertex
 10
492.428284
 20
365.084747
 30
0.0
  0
VERTEX
  5
31B
330
30A
100
AcDbEntity
  8
0
370
     0
100
AcDbVertex
100
AcDb2dVertex
 10
491.5737
 20
366.55426
 30
0.0
  0
VERTEX
  5
31C
330
30A
100
AcDbEntity
  8
0
370
     0
100
AcDbVertex
100
AcDb2dVertex
 10
490.663818
 20
367.990387
 30
0.0
  0
VERTEX
  5
31D
330
30A
100
AcDbEntity
  8
0
370
     0
100
AcDbVertex
100
AcDb2dVertex
 10
489.700287
 20
369.391174
 30
0.0
  0
VERTEX
  5
31E
330
30A
100
AcDbEntity
  8
0
370
     0
100
AcDbVertex
100
AcDb2dVertex
 10
488.684692
 20
370.754578
 30
0.0
  0
VERTEX
  5
31F
330
30A
100
AcDbEntity
  8
0
370
     0
100
AcDbVertex
100
AcDb2dVertex
 10
487.61853
 20
372.078705
 30
0.0
  0
VERTEX
  5
320
330
30A
100
AcDbEntity
  8
0
370
     0
100
AcDbVertex
100
AcDb2dVertex
 10
486.430145
 20
373.442444
 30
0.0
  0
VERTEX
  5
321
330
30A
100
AcDbEntity
  8
0
370
     0
100
AcDbVertex
100
AcDb2dVertex
 10
485.188385
 20
374.756836
 30
0.0
  0
VERTEX
  5
322
330
30A
100
AcDbEntity
  8
0
370
     0
100
AcDbVertex
100
AcDb2dVertex
 10
483.895111
 20
376.019836
 30
0.0
  0
VERTEX
  5
323
330
30A
100
AcDbEntity
  8
0
370
     0
100
AcDbVertex
100
AcDb2dVertex
 10
482.552094
 20
377.229858
 30
0.0
  0
VERTEX
  5
324
330
30A
100
AcDbEntity
  8
0
370
     0
100
AcDbVertex
100
AcDb2dVertex
 10
481.161163
 20
378.385376
 30
0.0
  0
VERTEX
  5
325
330
30A
100
AcDbEntity
  8
0
370
     0
100
AcDbVertex
100
AcDb2dVertex
 10
479.724487
 20
379.48468
 30
0.0
  0
VERTEX
  5
326
330
30A
100
AcDbEntity
  8
0
370
     0
100
AcDbVertex
100
AcDb2dVertex
 10
478.459778
 20
380.379822
 30
0.0
  0
VERTEX
  5
327
330
30A
100
AcDbEntity
  8
0
370
     0
100
AcDbVertex
100
AcDb2dVertex
 10
477.165039
 20
381.230896
 30
0.0
  0
VERTEX
  5
328
330
30A
100
AcDbEntity
  8
0
370
     0
100
AcDbVertex
100
AcDb2dVertex
 10
475.841736
 20
382.036743
 30
0.0
  0
VERTEX
  5
329
330
30A
100
AcDbEntity
  8
0
370
     0
100
AcDbVertex
100
AcDb2dVertex
 10
474.491394
 20
382.796143
 30
0.0
  0
VERTEX
  5
32A
330
30A
100
AcDbEntity
  8
0
370
     0
100
AcDbVertex
100
AcDb2dVertex
 10
473.121826
 20
383.5047
 30
0.0
  0
VERTEX
  5
32B
330
30A
100
AcDbEntity
  8
0
370
     0
100
AcDbVertex
100
AcDb2dVertex
 10
471.727173
 20
384.165894
 30
0.0
  0
VERTEX
  5
32C
330
30A
100
AcDbEntity
  8
0
370
     0
100
AcDbVertex
100
AcDb2dVertex
 10
470.310669
 20
384.779175
 30
0.0
  0
VERTEX
  5
32D
330
30A
100
AcDbEntity
  8
0
370
     0
100
AcDbVertex
100
AcDb2dVertex
 10
468.875702
 20
385.344238
 30
0.0
  0
VERTEX
  5
32E
330
30A
100
AcDbEntity
  8
0
370
     0
100
AcDbVertex
100
AcDb2dVertex
 10
467.636017
 20
385.789337
 30
0.0
  0
VERTEX
  5
32F
330
30A
100
AcDbEntity
  8
0
370
     0
100
AcDbVertex
100
AcDb2dVertex
 10
466.379852
 20
386.201599
 30
0.0
  0
VERTEX
  5
330
330
30A
100
AcDbEntity
  8
0
370
     0
100
AcDbVertex
100
AcDb2dVertex
 10
465.116821
 20
386.577026
 30
0.0
  0
VERTEX
  5
331
330
30A
100
AcDbEntity
  8
0
370
     0
100
AcDbVertex
100
AcDb2dVertex
 10
463.655365
 20
386.960938
 30
0.0
  0
VERTEX
  5
332
330
30A
100
AcDbEntity
  8
0
370
     0
100
AcDbVertex
100
AcDb2dVertex
 10
462.181
 20
387.291138
 30
0.0
  0
VERTEX
  5
333
330
30A
100
AcDbEntity
  8
0
370
     0
100
AcDbVertex
100
AcDb2dVertex
 10
460.696106
 20
387.563354
 30
0.0
  0
VERTEX
  5
334
330
30A
100
AcDbEntity
  8
0
370
     0
100
AcDbVertex
100
AcDb2dVertex
 10
459.798309
 20
387.697449
 30
0.0
  0
VERTEX
  5
335
330
30A
100
AcDbEntity
  8
0
370
     0
100
AcDbVertex
100
AcDb2dVertex
 10
458.889069
 20
387.810577
 30
0.0
  0
VERTEX
  5
336
330
30A
100
AcDbEntity
  8
0
370
     0
100
AcDbVertex
100
AcDb2dVertex
 10
457.667572
 20
387.931915
 30
0.0
  0
VERTEX
  5
337
330
30A
100
AcDbEntity
  8
0
370
     0
100
AcDbVertex
100
AcDb2dVertex
 10
456.456116
 20
388.024628
 30
0.0
  0
VERTEX
  5
338
330
30A
100
AcDbEntity
  8
0
370
     0
100
AcDbVertex
100
AcDb2dVertex
 10
455.312378
 20
388.093475
 30
0.0
  0
VERTEX
  5
339
330
30A
100
AcDbEntity
  8
0
370
     0
100
AcDbVertex
100
AcDb2dVertex
 10
453.022217
 20
388.201416
 30
0.0
  0
SEQEND
  5
33A
330
30A
100
AcDbEntity
  8
0
 62
     7
370
    35
  0
LINE
  5
33B
330
1F
100
AcDbEntity
  8
0
 62
     7
370
    35
100
AcDbLine
 10
453.022217
 20
388.201416
 30
0.0
 11
275.190613
 21
388.201416
 31
0.0
  0
POLYLINE
  5
33C
330
1F
100
AcDbEntity
  8
0
 62
     7
370
    35
100
AcDb2dPolyline
 66
     1
 10
0.0
 20
0.0
 30
0.0
  0
VERTEX
  5
33D
330
33C
100
AcDbEntity
  8
0
370
     0
100
AcDbVertex
100
AcDb2dVertex
 10
498.106415
 20
232.28476
 30
0.0
  0
VERTEX
  5
33E
330
33C
100
AcDbEntity
  8
0
370
     0
100
AcDbVertex
100
AcDb2dVertex
 10
498.00885
 20
230.189819
 30
0.0
  0
VERTEX
  5
33F
330
33C
100
AcDbEntity
  8
0
370
     0
100
AcDbVertex
100
AcDb2dVertex
 10
497.948639
 20
229.143097
 30
0.0
  0
VERTEX
  5
340
330
33C
100
AcDbEntity
  8
0
370
     0
100
AcDbVertex
100
AcDb2dVertex
 10
497.831299
 20
227.575546
 30
0.0
  0
VERTEX
  5
341
330
33C
100
AcDbEntity
  8
0
370
     0
100
AcDbVertex
100
AcDb2dVertex
 10
497.713806
 20
226.403168
 30
0.0
  0
VERTEX
  5
342
330
33C
100
AcDbEntity
  8
0
370
     0
100
AcDbVertex
100
AcDb2dVertex
 10
497.563934
 20
225.234848
 30
0.0
  0
VERTEX
  5
343
330
33C
100
AcDbEntity
  8
0
370
     0
100
AcDbVertex
100
AcDb2dVertex
 10
497.331116
 20
223.820831
 30
0.0
  0
VERTEX
  5
344
330
33C
100
AcDbEntity
  8
0
370
     0
100
AcDbVertex
100
AcDb2dVertex
 10
497.04425
 20
222.415726
 30
0.0
  0
VERTEX
  5
345
330
33C
100
AcDbEntity
  8
0
370
     0
100
AcDbVertex
100
AcDb2dVertex
 10
496.70697
 20
221.021179
 30
0.0
  0
VERTEX
  5
346
330
33C
100
AcDbEntity
  8
0
370
     0
100
AcDbVertex
100
AcDb2dVertex
 10
496.322876
 20
219.638672
 30
0.0
  0
VERTEX
  5
347
330
33C
100
AcDbEntity
  8
0
370
     0
100
AcDbVertex
100
AcDb2dVertex
 10
495.773682
 20
217.904129
 30
0.0
  0
VERTEX
  5
348
330
33C
100
AcDbEntity
  8
0
370
     0
100
AcDbVertex
100
AcDb2dVertex
 10
495.159607
 20
216.194611
 30
0.0
  0
VERTEX
  5
349
330
33C
100
AcDbEntity
  8
0
370
     0
100
AcDbVertex
100
AcDb2dVertex
 10
494.479187
 20
214.508484
 30
0.0
  0
VERTEX
  5
34A
330
33C
100
AcDbEntity
  8
0
370
     0
100
AcDbVertex
100
AcDb2dVertex
 10
493.844177
 20
213.087891
 30
0.0
  0
VERTEX
  5
34B
330
33C
100
AcDbEntity
  8
0
370
     0
100
AcDbVertex
100
AcDb2dVertex
 10
493.160797
 20
211.691071
 30
0.0
  0
VERTEX
  5
34C
330
33C
100
AcDbEntity
  8
0
370
     0
100
AcDbVertex
100
AcDb2dVertex
 10
492.428284
 20
210.318085
 30
0.0
  0
VERTEX
  5
34D
330
33C
100
AcDbEntity
  8
0
370
     0
100
AcDbVertex
100
AcDb2dVertex
 10
491.5737
 20
208.848572
 30
0.0
  0
VERTEX
  5
34E
330
33C
100
AcDbEntity
  8
0
370
     0
100
AcDbVertex
100
AcDb2dVertex
 10
490.663818
 20
207.412445
 30
0.0
  0
VERTEX
  5
34F
330
33C
100
AcDbEntity
  8
0
370
     0
100
AcDbVertex
100
AcDb2dVertex
 10
489.700287
 20
206.011658
 30
0.0
  0
VERTEX
  5
350
330
33C
100
AcDbEntity
  8
0
370
     0
100
AcDbVertex
100
AcDb2dVertex
 10
488.684692
 20
204.648239
 30
0.0
  0
VERTEX
  5
351
330
33C
100
AcDbEntity
  8
0
370
     0
100
AcDbVertex
100
AcDb2dVertex
 10
487.61853
 20
203.324127
 30
0.0
  0
VERTEX
  5
352
330
33C
100
AcDbEntity
  8
0
370
     0
100
AcDbVertex
100
AcDb2dVertex
 10
486.430145
 20
201.960419
 30
0.0
  0
VERTEX
  5
353
330
33C
100
AcDbEntity
  8
0
370
     0
100
AcDbVertex
100
AcDb2dVertex
 10
485.188385
 20
200.645996
 30
0.0
  0
VERTEX
  5
354
330
33C
100
AcDbEntity
  8
0
370
     0
100
AcDbVertex
100
AcDb2dVertex
 10
483.895111
 20
199.38298
 30
0.0
  0
VERTEX
  5
355
330
33C
100
AcDbEntity
  8
0
370
     0
100
AcDbVertex
100
AcDb2dVertex
 10
482.552094
 20
198.172943
 30
0.0
  0
VERTEX
  5
356
330
33C
100
AcDbEntity
  8
0
370
     0
100
AcDbVertex
100
AcDb2dVertex
 10
481.161133
 20
197.017426
 30
0.0
  0
VERTEX
  5
357
330
33C
100
AcDbEntity
  8
0
370
     0
100
AcDbVertex
100
AcDb2dVertex
 10
479.724487
 20
195.918152
 30
0.0
  0
VERTEX
  5
358
330
33C
100
AcDbEntity
  8
0
370
     0
100
AcDbVertex
100
AcDb2dVertex
 10
478.459778
 20
195.02301
 30
0.0
  0
VERTEX
  5
359
330
33C
100
AcDbEntity
  8
0
370
     0
100
AcDbVertex
100
AcDb2dVertex
 10
477.165039
 20
194.171921
 30
0.0
  0
VERTEX
  5
35A
330
33C
100
AcDbEntity
  8
0
370
     0
100
AcDbVertex
100
AcDb2dVertex
 10
475.841736
 20
193.366074
 30
0.0
  0
VERTEX
  5
35B
330
33C
100
AcDbEntity
  8
0
370
     0
100
AcDbVertex
100
AcDb2dVertex
 10
474.491394
 20
192.606689
 30
0.0
  0
VERTEX
  5
35C
330
33C
100
AcDbEntity
  8
0
370
     0
100
AcDbVertex
100
AcDb2dVertex
 10
473.121826
 20
191.898148
 30
0.0
  0
VERTEX
  5
35D
330
33C
100
AcDbEntity
  8
0
370
     0
100
AcDbVertex
100
AcDb2dVertex
 10
471.727173
 20
191.236923
 30
0.0
  0
VERTEX
  5
35E
330
33C
100
AcDbEntity
  8
0
370
     0
100
AcDbVertex
100
AcDb2dVertex
 10
470.310669
 20
190.623657
 30
0.0
  0
VERTEX
  5
35F
330
33C
100
AcDbEntity
  8
0
370
     0
100
AcDbVertex
100
AcDb2dVertex
 10
468.875671
 20
190.058594
 30
0.0
  0
VERTEX
  5
360
330
33C
100
AcDbEntity
  8
0
370
     0
100
AcDbVertex
100
AcDb2dVertex
 10
467.636017
 20
189.613495
 30
0.0
  0
VERTEX
  5
361
330
33C
100
AcDbEntity
  8
0
370
     0
100
AcDbVertex
100
AcDb2dVertex
 10
466.379852
 20
189.201248
 30
0.0
  0
VERTEX
  5
362
330
33C
100
AcDbEntity
  8
0
370
     0
100
AcDbVertex
100
AcDb2dVertex
 10
465.116821
 20
188.82579
 30
0.0
  0
VERTEX
  5
363
330
33C
100
AcDbEntity
  8
0
370
     0
100
AcDbVertex
100
AcDb2dVertex
 10
463.655334
 20
188.441895
 30
0.0
  0
VERTEX
  5
364
330
33C
100
AcDbEntity
  8
0
370
     0
100
AcDbVertex
100
AcDb2dVertex
 10
462.180969
 20
188.111694
 30
0.0
  0
VERTEX
  5
365
330
33C
100
AcDbEntity
  8
0
370
     0
100
AcDbVertex
100
AcDb2dVertex
 10
460.696075
 20
187.839478
 30
0.0
  0
VERTEX
  5
366
330
33C
100
AcDbEntity
  8
0
370
     0
100
AcDbVertex
100
AcDb2dVertex
 10
459.798309
 20
187.705383
 30
0.0
  0
VERTEX
  5
367
330
33C
100
AcDbEntity
  8
0
370
     0
100
AcDbVertex
100
AcDb2dVertex
 10
458.889069
 20
187.592255
 30
0.0
  0
VERTEX
  5
368
330
33C
100
AcDbEntity
  8
0
370
     0
100
AcDbVertex
100
AcDb2dVertex
 10
457.667572
 20
187.470917
 30
0.0
  0
VERTEX
  5
369
330
33C
100
AcDbEntity
  8
0
370
     0
100
AcDbVertex
100
AcDb2dVertex
 10
456.456116
 20
187.378204
 30
0.0
  0
VERTEX
  5
36A
330
33C
100
AcDbEntity
  8
0
370
     0
100
AcDbVertex
100
AcDb2dVertex
 10
455.312378
 20
187.309357
 30
0.0
  0
VERTEX
  5
36B
330
33C
100
AcDbEntity
  8
0
370
     0
100
AcDbVertex
100
AcDb2dVertex
 10
453.022217
 20
187.201416
 30
0.0
  0
SEQEND
  5
36C
330
33C
100
AcDbEntity
  8
0
 62
     7
370
    35
  0
POLYLINE
  5
36D
330
1F
100
AcDbEntity
  8
0
 62
     7
370
    70
100
AcDb2dPolyline
 66
     1
 10
0.0
 20
0.0
 30
0.0
  0
VERTEX
  5
36E
330
36D
100
AcDbEntity
  8
0
370
     0
100
AcDbVertex
100
AcDb2dVertex
 10
179.804749
 20
610.366333
 30
0.0
  0
VERTEX
  5
36F
330
36D
100
AcDbEntity
  8
0
370
     0
100
AcDbVertex
100
AcDb2dVertex
 10
177.320877
 20
609.688965
 30
0.0
  0
VERTEX
  5
370
330
36D
100
AcDbEntity
  8
0
370
     0
100
AcDbVertex
100
AcDb2dVertex
 10
175.966034
 20
608.108276
 30
0.0
  0
VERTEX
  5
371
330
36D
100
AcDbEntity
  8
0
370
     0
100
AcDbVertex
100
AcDb2dVertex
 10
175.28862
 20
605.62439
 30
0.0
  0
VERTEX
  5
372
330
36D
100
AcDbEntity
  8
0
370
     0
100
AcDbVertex
100
AcDb2dVertex
 10
175.28862
 20
604.947021
 30
0.0
  0
VERTEX
  5
373
330
36D
100
AcDbEntity
  8
0
370
     0
100
AcDbVertex
100
AcDb2dVertex
 10
175.966034
 20
602.463135
 30
0.0
  0
VERTEX
  5
374
330
36D
100
AcDbEntity
  8
0
370
     0
100
AcDbVertex
100
AcDb2dVertex
 10
177.320877
 20
600.882507
 30
0.0
  0
VERTEX
  5
375
330
36D
100
AcDbEntity
  8
0
370
     0
100
AcDbVertex
100
AcDb2dVertex
 10
179.127335
 20
600.205078
 30
0.0
  0
VERTEX
  5
376
330
36D
100
AcDbEntity
  8
0
370
     0
100
AcDbVertex
100
AcDb2dVertex
 10
179.804749
 20
600.205078
 30
0.0
  0
VERTEX
  5
377
330
36D
100
AcDbEntity
  8
0
370
     0
100
AcDbVertex
100
AcDb2dVertex
 10
181.611206
 20
600.882507
 30
0.0
  0
VERTEX
  5
378
330
36D
100
AcDbEntity
  8
0
370
     0
100
AcDbVertex
100
AcDb2dVertex
 10
182.966034
 20
602.463135
 30
0.0
  0
VERTEX
  5
379
330
36D
100
AcDbEntity
  8
0
370
     0
100
AcDbVertex
100
AcDb2dVertex
 10
183.869263
 20
604.947021
 30
0.0
  0
VERTEX
  5
37A
330
36D
100
AcDbEntity
  8
0
370
     0
100
AcDbVertex
100
AcDb2dVertex
 10
183.869263
 20
605.62439
 30
0.0
  0
VERTEX
  5
37B
330
36D
100
AcDbEntity
  8
0
370
     0
100
AcDbVertex
100
AcDb2dVertex
 10
183.191849
 20
608.108276
 30
0.0
  0
VERTEX
  5
37C
330
36D
100
AcDbEntity
  8
0
370
     0
100
AcDbVertex
100
AcDb2dVertex
 10
181.837006
 20
609.688965
 30
0.0
  0
VERTEX
  5
37D
330
36D
100
AcDbEntity
  8
0
370
     0
100
AcDbVertex
100
AcDb2dVertex
 10
179.804749
 20
610.366333
 30
0.0
  0
VERTEX
  5
37E
330
36D
100
AcDbEntity
  8
0
370
     0
100
AcDbVertex
100
AcDb2dVertex
 10
182.966034
 20
610.366333
 30
0.0
  0
VERTEX
  5
37F
330
36D
100
AcDbEntity
  8
0
370
     0
100
AcDbVertex
100
AcDb2dVertex
 10
186.127335
 20
609.688965
 30
0.0
  0
VERTEX
  5
380
330
36D
100
AcDbEntity
  8
0
370
     0
100
AcDbVertex
100
AcDb2dVertex
 10
188.611206
 20
608.108276
 30
0.0
  0
VERTEX
  5
381
330
36D
100
AcDbEntity
  8
0
370
     0
100
AcDbVertex
100
AcDb2dVertex
 10
189.28862
 20
605.62439
 30
0.0
  0
VERTEX
  5
382
330
36D
100
AcDbEntity
  8
0
370
     0
100
AcDbVertex
100
AcDb2dVertex
 10
189.28862
 20
604.043762
 30
0.0
  0
VERTEX
  5
383
330
36D
100
AcDbEntity
  8
0
370
     0
100
AcDbVertex
100
AcDb2dVertex
 10
188.611206
 20
601.785706
 30
0.0
  0
VERTEX
  5
384
330
36D
100
AcDbEntity
  8
0
370
     0
100
AcDbVertex
100
AcDb2dVertex
 10
187.256363
 20
600.882507
 30
0.0
  0
SEQEND
  5
385
330
36D
100
AcDbEntity
  8
0
 62
     7
370
    70
  0
POLYLINE
  5
386
330
1F
100
AcDbEntity
  8
0
 62
     7
370
    70
100
AcDb2dPolyline
 66
     1
 10
0.0
 20
0.0
 30
0.0
  0
VERTEX
  5
387
330
386
100
AcDbEntity
  8
0
370
     0
100
AcDbVertex
100
AcDb2dVertex
 10
175.28862
 20
620.166382
 30
0.0
  0
VERTEX
  5
388
330
386
100
AcDbEntity
  8
0
370
     0
100
AcDbVertex
100
AcDb2dVertex
 10
179.578949
 20
620.166382
 30
0.0
  0
SEQEND
  5
389
330
386
100
AcDbEntity
  8
0
 62
     7
370
    70
  0
POLYLINE
  5
38A
330
1F
100
AcDbEntity
  8
0
 62
     7
370
    70
100
AcDb2dPolyline
 66
     1
 10
0.0
 20
0.0
 30
0.0
  0
VERTEX
  5
38B
330
38A
100
AcDbEntity
  8
0
370
     0
100
AcDbVertex
100
AcDb2dVertex
 10
175.28862
 20
624.682495
 30
0.0
  0
VERTEX
  5
38C
330
38A
100
AcDbEntity
  8
0
370
     0
100
AcDbVertex
100
AcDb2dVertex
 10
179.578949
 20
624.682495
 30
0.0
  0
SEQEND
  5
38D
330
38A
100
AcDbEntity
  8
0
 62
     7
370
    70
  0
LINE
  5
38E
330
1F
100
AcDbEntity
  8
0
 62
     7
370
    35
100
AcDbLine
 10
339.606415
 20
555.087036
 30
0.0
 11
189.28862
 21
555.087036
 31
0.0
  0
LINE
  5
38F
330
1F
100
AcDbEntity
  8
0
 62
     7
370
    35
100
AcDbLine
 10
273.190613
 20
664.362183
 30
0.0
 11
189.28862
 21
664.362183
 31
0.0
  0
POLYLINE
  5
390
330
1F
100
AcDbEntity
  8
0
 62
     7
370
    35
100
AcDb2dPolyline
 66
     1
 10
0.0
 20
0.0
 30
0.0
  0
VERTEX
  5
391
330
390
100
AcDbEntity
  8
0
370
     0
100
AcDbVertex
100
AcDb2dVertex
 10
191.806244
 20
662.430359
 30
0.0
  0
VERTEX
  5
392
330
390
100
AcDbEntity
  8
0
370
     0
100
AcDbVertex
100
AcDb2dVertex
 10
191.28862
 20
664.362183
 30
0.0
  0
VERTEX
  5
393
330
390
100
AcDbEntity
  8
0
370
     0
100
AcDbVertex
100
AcDb2dVertex
 10
190.770981
 20
662.430359
 30
0.0
  0
SEQEND
  5
394
330
390
100
AcDbEntity
  8
0
 62
     7
370
    35
  0
POLYLINE
  5
395
330
1F
100
AcDbEntity
  8
0
 62
     7
370
    35
100
AcDb2dPolyline
 66
     1
 10
0.0
 20
0.0
 30
0.0
  0
VERTEX
  5
396
330
395
100
AcDbEntity
  8
0
370
     0
100
AcDbVertex
100
AcDb2dVertex
 10
190.770981
 20
557.01886
 30
0.0
  0
VERTEX
  5
397
330
395
100
AcDbEntity
  8
0
370
     0
100
AcDbVertex
100
AcDb2dVertex
 10
191.28862
 20
555.087036
 30
0.0
  0
VERTEX
  5
398
330
395
100
AcDbEntity
  8
0
370
     0
100
AcDbVertex
100
AcDb2dVertex
 10
191.806244
 20
557.01886
 30
0.0
  0
SEQEND
  5
399
330
395
100
AcDbEntity
  8
0
 62
     7
370
    35
  0
LINE
  5
39A
330
1F
100
AcDbEntity
  8
0
 62
     7
370
    35
100
AcDbLine
 10
191.28862
 20
555.087036
 30
0.0
 11
191.28862
 21
664.362183
 31
0.0
  0
ARC
  5
39B
330
1F
100
AcDbEntity
  8
0
 62
     7
370
    35
100
AcDbCircle
 10
468.45282
 20
583.578735
 30
0.0
 40
22.49999997220089
100
AcDbArc
 50
274.145834
 51
355.0
  0
LINE
  5
39C
330
1F
100
AcDbEntity
  8
0
 62
     7
370
    35
100
AcDbLine
 10
386.606415
 20
555.087036
 30
0.0
 11
364.106415
 21
555.087036
 31
0.0
  0
LINE
  5
39D
330
1F
100
AcDbEntity
  8
0
 62
     7
370
    35
100
AcDbLine
 10
386.606415
 20
555.087036
 30
0.0
 11
470.079468
 21
561.137573
 31
0.0
  0
LINE
  5
39E
330
1F
100
AcDbEntity
  8
0
 62
     7
370
    35
100
AcDbLine
 10
497.906738
 20
662.080078
 30
0.0
 11
490.867218
 21
581.617676
 31
0.0
  0
LINE
  5
39F
330
1F
100
AcDbEntity
  8
0
 62
     7
370
    35
100
AcDbLine
 10
364.106415
 20
555.087036
 30
0.0
 11
341.606415
 21
555.087036
 31
0.0
  0
LINE
  5
3A0
330
1F
100
AcDbEntity
  8
0
 62
     7
370
    35
100
AcDbLine
 10
341.606415
 20
555.087036
 30
0.0
 11
258.133362
 21
561.137573
 31
0.0
  0
LINE
  5
3A1
330
1F
100
AcDbEntity
  8
0
 62
     7
370
    35
100
AcDbLine
 10
500.397247
 20
664.362183
 30
0.0
 11
453.022217
 21
664.362183
 31
0.0
  0
ARC
  5
3A2
330
1F
100
AcDbEntity
  8
0
 62
     7
370
    35
100
AcDbCircle
 10
500.397247
 20
661.862183
 30
0.0
 40
2.5
100
AcDbArc
 50
90.000003
 51
175.000006
  0
LINE
  5
3A3
330
1F
100
AcDbEntity
  8
0
 62
     7
370
    35
100
AcDbLine
 10
237.267929
 20
582.505859
 30
0.0
 11
237.266098
 21
582.526611
 31
0.0
  0
ARC
  5
3A4
330
1F
100
AcDbEntity
  8
0
 62
     7
370
    35
100
AcDbCircle
 10
259.76001
 20
583.578735
 30
0.0
 40
22.49999997220353
100
AcDbArc
 50
184.999994
 51
265.854168
  0
LINE
  5
3A5
330
1F
100
AcDbEntity
  8
0
 62
     7
370
    35
100
AcDbLine
 10
453.022217
 20
664.362183
 30
0.0
 11
275.190613
 21
664.362183
 31
0.0
  0
LINE
  5
3A6
330
1F
100
AcDbEntity
  8
0
 62
     7
370
    35
100
AcDbLine
 10
500.397247
 20
664.362183
 30
0.0
 11
510.606415
 21
664.362183
 31
0.0
  0
LINE
  5
3A7
330
1F
100
AcDbEntity
  8
0
 62
     7
370
    35
100
AcDbLine
 10
227.815582
 20
664.362183
 30
0.0
 11
275.190613
 21
664.362183
 31
0.0
  0
LINE
  5
3A8
330
1F
100
AcDbEntity
  8
0
 62
     7
370
    35
100
AcDbLine
 10
217.606415
 20
664.362183
 30
0.0
 11
227.815582
 21
664.362183
 31
0.0
  0
LINE
  5
3A9
330
1F
100
AcDbEntity
  8
0
 62
     7
370
    35
100
AcDbLine
 10
230.306076
 20
662.080078
 30
0.0
 11
237.345612
 21
581.617676
 31
0.0
  0
ARC
  5
3AA
330
1F
100
AcDbEntity
  8
0
 62
     7
370
    35
100
AcDbCircle
 10
227.815582
 20
661.862183
 30
0.0
 40
2.5
100
AcDbArc
 50
5.0
 51
90.000003
  0
LINE
  5
3AB
330
1F
100
AcDbEntity
  8
0
 62
     7
370
    35
100
AcDbLine
 10
237.267929
 20
582.505859
 30
0.0
 11
237.266113
 21
582.526611
 31
0.0
  0
LINE
  5
3AC
330
1F
100
AcDbEntity
  8
0
 62
     7
370
    35
100
AcDbLine
 10
498.106415
 20
664.362183
 30
0.0
 11
453.022217
 21
664.362183
 31
0.0
  0
LINE
  5
3AD
330
1F
100
AcDbEntity
  8
0
 62
     7
370
    35
100
AcDbLine
 10
453.022217
 20
664.362183
 30
0.0
 11
275.190613
 21
664.362183
 31
0.0
  0
LINE
  5
3AE
330
1F
100
AcDbEntity
  8
0
 62
     7
370
    35
100
AcDbLine
 10
230.106415
 20
664.362183
 30
0.0
 11
275.190613
 21
664.362183
 31
0.0
  0
ELLIPSE
  5
3AF
330
1F
100
AcDbEntity
  8
0
 62
     7
370
    35
100
AcDbEllipse
 10
729.617676
 20
360.698181
 30
0.0
 11
3.308349609375
 21
-22.25543212890625
 31
0.0
210
0.0
220
0.0
230
1.0
 40
0.234704
 41
0.0000018320144346
 42
0.586849227577523
  0
POLYLINE
  5
3B0
330
1F
100
AcDbEntity
  8
0
 62
     7
370
    35
100
AcDb2dPolyline
 66
     1
 10
0.0
 20
0.0
 30
0.0
  0
VERTEX
  5
3B1
330
3B0
100
AcDbEntity
  8
0
370
     0
100
AcDbVertex
100
AcDb2dVertex
 10
735.265015
 20
342.596283
 30
0.0
  0
VERTEX
  5
3B2
330
3B0
100
AcDbEntity
  8
0
370
     0
100
AcDbVertex
100
AcDb2dVertex
 10
745.80658
 20
344.172852
 30
0.0
  0
VERTEX
  5
3B3
330
3B0
100
AcDbEntity
  8
0
370
     0
100
AcDbVertex
100
AcDb2dVertex
 10
759.49469
 20
346.253967
 30
0.0
  0
VERTEX
  5
3B4
330
3B0
100
AcDbEntity
  8
0
370
     0
100
AcDbVertex
100
AcDb2dVertex
 10
772.917419
 20
348.343933
 30
0.0
  0
VERTEX
  5
3B5
330
3B0
100
AcDbEntity
  8
0
370
     0
100
AcDbVertex
100
AcDb2dVertex
 10
784.270386
 20
350.161499
 30
0.0
  0
VERTEX
  5
3B6
330
3B0
100
AcDbEntity
  8
0
370
     0
100
AcDbVertex
100
AcDb2dVertex
 10
795.268188
 20
351.976776
 30
0.0
  0
VERTEX
  5
3B7
330
3B0
100
AcDbEntity
  8
0
370
     0
100
AcDbVertex
100
AcDb2dVertex
 10
806.822693
 20
353.952698
 30
0.0
  0
VERTEX
  5
3B8
330
3B0
100
AcDbEntity
  8
0
370
     0
100
AcDbVertex
100
AcDb2dVertex
 10
818.160706
 20
355.968292
 30
0.0
  0
SEQEND
  5
3B9
330
3B0
100
AcDbEntity
  8
0
 62
     7
370
    35
  0
ELLIPSE
  5
3BA
330
1F
100
AcDbEntity
  8
0
 62
     7
370
    35
100
AcDbEllipse
 10
895.75116
 20
390.811127
 30
0.0
 11
4.70086669921875
 21
-22.00344848632812
 31
0.0
210
0.0
220
0.0
230
1.0
 40
0.142261
 41
6.283179446806728
 42
6.858147950206868
  0
POLYLINE
  5
3BB
330
1F
100
AcDbEntity
  8
0
 62
     7
370
    35
100
AcDb2dPolyline
 66
     1
 10
0.0
 20
0.0
 30
0.0
  0
VERTEX
  5
3BC
330
3BB
100
AcDbEntity
  8
0
370
     0
100
AcDbVertex
100
AcDb2dVertex
 10
818.160706
 20
355.968292
 30
0.0
  0
VERTEX
  5
3BD
330
3BB
100
AcDbEntity
  8
0
370
     0
100
AcDbVertex
100
AcDb2dVertex
 10
826.798218
 20
357.556885
 30
0.0
  0
VERTEX
  5
3BE
330
3BB
100
AcDbEntity
  8
0
370
     0
100
AcDbVertex
100
AcDb2dVertex
 10
835.544922
 20
359.211182
 30
0.0
  0
VERTEX
  5
3BF
330
3BB
100
AcDbEntity
  8
0
370
     0
100
AcDbVertex
100
AcDb2dVertex
 10
844.483276
 20
360.945892
 30
0.0
  0
VERTEX
  5
3C0
330
3BB
100
AcDbEntity
  8
0
370
     0
100
AcDbVertex
100
AcDb2dVertex
 10
855.637756
 20
363.165924
 30
0.0
  0
VERTEX
  5
3C1
330
3BB
100
AcDbEntity
  8
0
370
     0
100
AcDbVertex
100
AcDb2dVertex
 10
867.153198
 20
365.511536
 30
0.0
  0
VERTEX
  5
3C2
330
3BB
100
AcDbEntity
  8
0
370
     0
100
AcDbVertex
100
AcDb2dVertex
 10
875.577271
 20
367.255646
 30
0.0
  0
VERTEX
  5
3C3
330
3BB
100
AcDbEntity
  8
0
370
     0
100
AcDbVertex
100
AcDb2dVertex
 10
884.118042
 20
369.043732
 30
0.0
  0
VERTEX
  5
3C4
330
3BB
100
AcDbEntity
  8
0
370
     0
100
AcDbVertex
100
AcDb2dVertex
 10
901.398438
 20
372.709229
 30
0.0
  0
SEQEND
  5
3C5
330
3BB
100
AcDbEntity
  8
0
 62
     7
370
    35
  0
LINE
  5
3C6
330
1F
100
AcDbEntity
  8
0
 62
     7
370
    35
100
AcDbLine
 10
901.398438
 20
372.709229
 30
0.0
 11
907.417175
 21
409.804932
 31
0.0
  0
LINE
  5
3C7
330
1F
100
AcDbEntity
  8
0
 62
     7
370
    35
100
AcDbLine
 10
735.264954
 20
342.596283
 30
0.0
 11
736.696411
 21
378.954315
 31
0.0
  0
ELLIPSE
  5
3C8
330
1F
100
AcDbEntity
  8
0
 62
     7
370
    35
100
AcDbEllipse
 10
737.665222
 20
385.612915
 30
0.0
 11
-0.44586181640625
 21
2.459930419921875
 31
0.0
210
0.0
220
0.0
230
1.0
 40
0.188782
 41
5.379780229472658
 42
6.283184004626357
  0
LINE
  5
3C9
330
1F
100
AcDbEntity
  8
0
 62
     7
370
    35
100
AcDbLine
 10
737.753967
 20
387.201538
 30
0.0
 11
909.588074
 21
418.347778
 31
0.0
  0
ELLIPSE
  5
3CA
330
1F
100
AcDbEntity
  8
0
 62
     7
370
    35
100
AcDbEllipse
 10
909.499268
 20
416.759125
 30
0.0
 11
-0.44586181640625
 21
2.459930419921875
 31
0.0
210
0.0
220
0.0
230
1.0
 40
0.188782
 41
5.37978028768487
 42
6.283184134127322
  0
POLYLINE
  5
3CB
330
1F
100
AcDbEntity
  8
0
 62
     7
370
    35
100
AcDb2dPolyline
 66
     1
 10
0.0
 20
0.0
 30
0.0
  0
VERTEX
  5
3CC
330
3CB
100
AcDbEntity
  8
0
370
     0
100
AcDbVertex
100
AcDb2dVertex
 10
901.398438
 20
372.709229
 30
0.0
  0
VERTEX
  5
3CD
330
3CB
100
AcDbEntity
  8
0
370
     0
100
AcDbVertex
100
AcDb2dVertex
 10
903.212463
 20
373.078674
 30
0.0
  0
VERTEX
  5
3CE
330
3CB
100
AcDbEntity
  8
0
370
     0
100
AcDbVertex
100
AcDb2dVertex
 10
905.007324
 20
373.514343
 30
0.0
  0
VERTEX
  5
3CF
330
3CB
100
AcDbEntity
  8
0
370
     0
100
AcDbVertex
100
AcDb2dVertex
 10
906.779663
 20
374.016357
 30
0.0
  0
VERTEX
  5
3D0
330
3CB
100
AcDbEntity
  8
0
370
     0
100
AcDbVertex
100
AcDb2dVertex
 10
908.525757
 20
374.584656
 30
0.0
  0
VERTEX
  5
3D1
330
3CB
100
AcDbEntity
  8
0
370
     0
100
AcDbVertex
100
AcDb2dVertex
 10
910.241821
 20
375.219238
 30
0.0
  0
VERTEX
  5
3D2
330
3CB
100
AcDbEntity
  8
0
370
     0
100
AcDbVertex
100
AcDb2dVertex
 10
911.923889
 20
375.91983
 30
0.0
  0
VERTEX
  5
3D3
330
3CB
100
AcDbEntity
  8
0
370
     0
100
AcDbVertex
100
AcDb2dVertex
 10
913.567932
 20
376.686096
 30
0.0
  0
VERTEX
  5
3D4
330
3CB
100
AcDbEntity
  8
0
370
     0
100
AcDbVertex
100
AcDb2dVertex
 10
915.1698
 20
377.517517
 30
0.0
  0
VERTEX
  5
3D5
330
3CB
100
AcDbEntity
  8
0
370
     0
100
AcDbVertex
100
AcDb2dVertex
 10
915.953613
 20
377.957489
 30
0.0
  0
VERTEX
  5
3D6
330
3CB
100
AcDbEntity
  8
0
370
     0
100
AcDbVertex
100
AcDb2dVertex
 10
916.72522
 20
378.413483
 30
0.0
  0
VERTEX
  5
3D7
330
3CB
100
AcDbEntity
  8
0
370
     0
100
AcDbVertex
100
AcDb2dVertex
 10
917.734192
 20
379.046204
 30
0.0
  0
VERTEX
  5
3D8
330
3CB
100
AcDbEntity
  8
0
370
     0
100
AcDbVertex
100
AcDb2dVertex
 10
918.719238
 20
379.70697
 30
0.0
  0
VERTEX
  5
3D9
330
3CB
100
AcDbEntity
  8
0
370
     0
100
AcDbVertex
100
AcDb2dVertex
 10
919.679077
 20
380.395355
 30
0.0
  0
VERTEX
  5
3DA
330
3CB
100
AcDbEntity
  8
0
370
     0
100
AcDbVertex
100
AcDb2dVertex
 10
920.8974
 20
381.339386
 30
0.0
  0
VERTEX
  5
3DB
330
3CB
100
AcDbEntity
  8
0
370
     0
100
AcDbVertex
100
AcDb2dVertex
 10
922.067017
 20
382.329285
 30
0.0
  0
VERTEX
  5
3DC
330
3CB
100
AcDbEntity
  8
0
370
     0
100
AcDbVertex
100
AcDb2dVertex
 10
923.184814
 20
383.363892
 30
0.0
  0
VERTEX
  5
3DD
330
3CB
100
AcDbEntity
  8
0
370
     0
100
AcDbVertex
100
AcDb2dVertex
 10
924.247681
 20
384.441711
 30
0.0
  0
VERTEX
  5
3DE
330
3CB
100
AcDbEntity
  8
0
370
     0
100
AcDbVertex
100
AcDb2dVertex
 10
925.252441
 20
385.561157
 30
0.0
  0
VERTEX
  5
3DF
330
3CB
100
AcDbEntity
  8
0
370
     0
100
AcDbVertex
100
AcDb2dVertex
 10
926.196167
 20
386.720337
 30
0.0
  0
VERTEX
  5
3E0
330
3CB
100
AcDbEntity
  8
0
370
     0
100
AcDbVertex
100
AcDb2dVertex
 10
927.075806
 20
387.917236
 30
0.0
  0
VERTEX
  5
3E1
330
3CB
100
AcDbEntity
  8
0
370
     0
100
AcDbVertex
100
AcDb2dVertex
 10
927.817139
 20
389.035706
 30
0.0
  0
VERTEX
  5
3E2
330
3CB
100
AcDbEntity
  8
0
370
     0
100
AcDbVertex
100
AcDb2dVertex
 10
928.501221
 20
390.18158
 30
0.0
  0
VERTEX
  5
3E3
330
3CB
100
AcDbEntity
  8
0
370
     0
100
AcDbVertex
100
AcDb2dVertex
 10
929.12616
 20
391.352844
 30
0.0
  0
VERTEX
  5
3E4
330
3CB
100
AcDbEntity
  8
0
370
     0
100
AcDbVertex
100
AcDb2dVertex
 10
929.690063
 20
392.547455
 30
0.0
  0
VERTEX
  5
3E5
330
3CB
100
AcDbEntity
  8
0
370
     0
100
AcDbVertex
100
AcDb2dVertex
 10
930.191406
 20
393.763092
 30
0.0
  0
VERTEX
  5
3E6
330
3CB
100
AcDbEntity
  8
0
370
     0
100
AcDbVertex
100
AcDb2dVertex
 10
930.628784
 20
394.997437
 30
0.0
  0
VERTEX
  5
3E7
330
3CB
100
AcDbEntity
  8
0
370
     0
100
AcDbVertex
100
AcDb2dVertex
 10
931.000977
 20
396.248047
 30
0.0
  0
VERTEX
  5
3E8
330
3CB
100
AcDbEntity
  8
0
370
     0
100
AcDbVertex
100
AcDb2dVertex
 10
931.306885
 20
397.51239
 30
0.0
  0
SEQEND
  5
3E9
330
3CB
100
AcDbEntity
  8
0
 62
     7
370
    35
  0
POLYLINE
  5
3EA
330
1F
100
AcDbEntity
  8
0
 62
     7
370
    35
100
AcDb2dPolyline
 66
     1
 10
0.0
 20
0.0
 30
0.0
  0
VERTEX
  5
3EB
330
3EA
100
AcDbEntity
  8
0
370
     0
100
AcDbVertex
100
AcDb2dVertex
 10
735.264954
 20
342.596283
 30
0.0
  0
VERTEX
  5
3EC
330
3EA
100
AcDbEntity
  8
0
370
     0
100
AcDbVertex
100
AcDb2dVertex
 10
734.199219
 20
342.418365
 30
0.0
  0
VERTEX
  5
3ED
330
3EA
100
AcDbEntity
  8
0
370
     0
100
AcDbVertex
100
AcDb2dVertex
 10
733.123657
 20
342.262238
 30
0.0
  0
VERTEX
  5
3EE
330
3EA
100
AcDbEntity
  8
0
370
     0
100
AcDbVertex
100
AcDb2dVertex
 10
731.681152
 20
342.089172
 30
0.0
  0
VERTEX
  5
3EF
330
3EA
100
AcDbEntity
  8
0
370
     0
100
AcDbVertex
100
AcDb2dVertex
 10
730.23053
 20
341.956299
 30
0.0
  0
VERTEX
  5
3F0
330
3EA
100
AcDbEntity
  8
0
370
     0
100
AcDbVertex
100
AcDb2dVertex
 10
728.773254
 20
341.863831
 30
0.0
  0
VERTEX
  5
3F1
330
3EA
100
AcDbEntity
  8
0
370
     0
100
AcDbVertex
100
AcDb2dVertex
 10
727.127808
 20
341.808167
 30
0.0
  0
VERTEX
  5
3F2
330
3EA
100
AcDbEntity
  8
0
370
     0
100
AcDbVertex
100
AcDb2dVertex
 10
725.478149
 20
341.803955
 30
0.0
  0
VERTEX
  5
3F3
330
3EA
100
AcDbEntity
  8
0
370
     0
100
AcDbVertex
100
AcDb2dVertex
 10
723.826477
 20
341.851196
 30
0.0
  0
VERTEX
  5
3F4
330
3EA
100
AcDbEntity
  8
0
370
     0
100
AcDbVertex
100
AcDb2dVertex
 10
722.175049
 20
341.950073
 30
0.0
  0
VERTEX
  5
3F5
330
3EA
100
AcDbEntity
  8
0
370
     0
100
AcDbVertex
100
AcDb2dVertex
 10
720.291016
 20
342.126343
 30
0.0
  0
VERTEX
  5
3F6
330
3EA
100
AcDbEntity
  8
0
370
     0
100
AcDbVertex
100
AcDb2dVertex
 10
718.413696
 20
342.370056
 30
0.0
  0
VERTEX
  5
3F7
330
3EA
100
AcDbEntity
  8
0
370
     0
100
AcDbVertex
100
AcDb2dVertex
 10
716.546631
 20
342.681274
 30
0.0
  0
VERTEX
  5
3F8
330
3EA
100
AcDbEntity
  8
0
370
     0
100
AcDbVertex
100
AcDb2dVertex
 10
714.693359
 20
343.059875
 30
0.0
  0
VERTEX
  5
3F9
330
3EA
100
AcDbEntity
  8
0
370
     0
100
AcDbVertex
100
AcDb2dVertex
 10
712.857483
 20
343.505676
 30
0.0
  0
VERTEX
  5
3FA
330
3EA
100
AcDbEntity
  8
0
370
     0
100
AcDbVertex
100
AcDb2dVertex
 10
711.042542
 20
344.018372
 30
0.0
  0
VERTEX
  5
3FB
330
3EA
100
AcDbEntity
  8
0
370
     0
100
AcDbVertex
100
AcDb2dVertex
 10
709.252197
 20
344.597778
 30
0.0
  0
VERTEX
  5
3FC
330
3EA
100
AcDbEntity
  8
0
370
     0
100
AcDbVertex
100
AcDb2dVertex
 10
707.417603
 20
345.271637
 30
0.0
  0
VERTEX
  5
3FD
330
3EA
100
AcDbEntity
  8
0
370
     0
100
AcDbVertex
100
AcDb2dVertex
 10
706.513184
 20
345.635345
 30
0.0
  0
VERTEX
  5
3FE
330
3EA
100
AcDbEntity
  8
0
370
     0
100
AcDbVertex
100
AcDb2dVertex
 10
705.618103
 20
346.016754
 30
0.0
  0
VERTEX
  5
3FF
330
3EA
100
AcDbEntity
  8
0
370
     0
100
AcDbVertex
100
AcDb2dVertex
 10
704.440186
 20
346.552673
 30
0.0
  0
VERTEX
  5
400
330
3EA
100
AcDbEntity
  8
0
370
     0
100
AcDbVertex
100
AcDb2dVertex
 10
703.281189
 20
347.119659
 30
0.0
  0
VERTEX
  5
401
330
3EA
100
AcDbEntity
  8
0
370
     0
100
AcDbVertex
100
AcDb2dVertex
 10
702.142578
 20
347.717346
 30
0.0
  0
VERTEX
  5
402
330
3EA
100
AcDbEntity
  8
0
370
     0
100
AcDbVertex
100
AcDb2dVertex
 10
700.804993
 20
348.47467
 30
0.0
  0
VERTEX
  5
403
330
3EA
100
AcDbEntity
  8
0
370
     0
100
AcDbVertex
100
AcDb2dVertex
 10
699.50116
 20
349.275055
 30
0.0
  0
VERTEX
  5
404
330
3EA
100
AcDbEntity
  8
0
370
     0
100
AcDbVertex
100
AcDb2dVertex
 10
698.233459
 20
350.117737
 30
0.0
  0
VERTEX
  5
405
330
3EA
100
AcDbEntity
  8
0
370
     0
100
AcDbVertex
100
AcDb2dVertex
 10
697.004333
 20
351.001801
 30
0.0
  0
VERTEX
  5
406
330
3EA
100
AcDbEntity
  8
0
370
     0
100
AcDbVertex
100
AcDb2dVertex
 10
695.816284
 20
351.926331
 30
0.0
  0
VERTEX
  5
407
330
3EA
100
AcDbEntity
  8
0
370
     0
100
AcDbVertex
100
AcDb2dVertex
 10
694.56488
 20
352.984222
 30
0.0
  0
VERTEX
  5
408
330
3EA
100
AcDbEntity
  8
0
370
     0
100
AcDbVertex
100
AcDb2dVertex
 10
693.368958
 20
354.087769
 30
0.0
  0
VERTEX
  5
409
330
3EA
100
AcDbEntity
  8
0
370
     0
100
AcDbVertex
100
AcDb2dVertex
 10
692.23175
 20
355.235168
 30
0.0
  0
VERTEX
  5
40A
330
3EA
100
AcDbEntity
  8
0
370
     0
100
AcDbVertex
100
AcDb2dVertex
 10
691.156372
 20
356.4245
 30
0.0
  0
VERTEX
  5
40B
330
3EA
100
AcDbEntity
  8
0
370
     0
100
AcDbVertex
100
AcDb2dVertex
 10
690.145996
 20
357.653564
 30
0.0
  0
VERTEX
  5
40C
330
3EA
100
AcDbEntity
  8
0
370
     0
100
AcDbVertex
100
AcDb2dVertex
 10
689.203613
 20
358.919983
 30
0.0
  0
VERTEX
  5
40D
330
3EA
100
AcDbEntity
  8
0
370
     0
100
AcDbVertex
100
AcDb2dVertex
 10
688.332153
 20
360.221191
 30
0.0
  0
VERTEX
  5
40E
330
3EA
100
AcDbEntity
  8
0
370
     0
100
AcDbVertex
100
AcDb2dVertex
 10
687.923889
 20
360.884003
 30
0.0
  0
VERTEX
  5
40F
330
3EA
100
AcDbEntity
  8
0
370
     0
100
AcDbVertex
100
AcDb2dVertex
 10
687.534363
 20
361.554474
 30
0.0
  0
VERTEX
  5
410
330
3EA
100
AcDbEntity
  8
0
370
     0
100
AcDbVertex
100
AcDb2dVertex
 10
687.044678
 20
362.459686
 30
0.0
  0
VERTEX
  5
411
330
3EA
100
AcDbEntity
  8
0
370
     0
100
AcDbVertex
100
AcDb2dVertex
 10
686.5896
 20
363.376923
 30
0.0
  0
VERTEX
  5
412
330
3EA
100
AcDbEntity
  8
0
370
     0
100
AcDbVertex
100
AcDb2dVertex
 10
686.1698
 20
364.305206
 30
0.0
  0
VERTEX
  5
413
330
3EA
100
AcDbEntity
  8
0
370
     0
100
AcDbVertex
100
AcDb2dVertex
 10
685.77478
 20
365.272247
 30
0.0
  0
VERTEX
  5
414
330
3EA
100
AcDbEntity
  8
0
370
     0
100
AcDbVertex
100
AcDb2dVertex
 10
685.378418
 20
366.366516
 30
0.0
  0
SEQEND
  5
415
330
3EA
100
AcDbEntity
  8
0
 62
     7
370
    35
  0
LINE
  5
416
330
1F
100
AcDbEntity
  8
0
 62
     7
370
    35
100
AcDbLine
 10
685.378418
 20
366.366516
 30
0.0
 11
683.563599
 21
393.450989
 31
0.0
  0
ELLIPSE
  5
417
330
1F
100
AcDbEntity
  8
0
 62
     7
370
    35
100
AcDbEllipse
 10
679.804932
 20
412.941101
 30
0.0
 11
2.3675537109375
 21
0.802978515625
 31
0.0
210
0.0
220
0.0
230
1.0
 40
0.60781
 41
6.283183891268896
 42
7.613947277458847
  0
POLYLINE
  5
418
330
1F
100
AcDbEntity
  8
0
 62
     7
370
    35
100
AcDb2dPolyline
 66
     1
 10
0.0
 20
0.0
 30
0.0
  0
VERTEX
  5
419
330
418
100
AcDbEntity
  8
0
370
     0
100
AcDbVertex
100
AcDb2dVertex
 10
679.893677
 20
414.529755
 30
0.0
  0
VERTEX
  5
41A
330
418
100
AcDbEntity
  8
0
370
     0
100
AcDbVertex
100
AcDb2dVertex
 10
680.372009
 20
413.21756
 30
0.0
  0
VERTEX
  5
41B
330
418
100
AcDbEntity
  8
0
370
     0
100
AcDbVertex
100
AcDb2dVertex
 10
680.912292
 20
411.918518
 30
0.0
  0
VERTEX
  5
41C
330
418
100
AcDbEntity
  8
0
370
     0
100
AcDbVertex
100
AcDb2dVertex
 10
681.513794
 20
410.634399
 30
0.0
  0
VERTEX
  5
41D
330
418
100
AcDbEntity
  8
0
370
     0
100
AcDbVertex
100
AcDb2dVertex
 10
682.175781
 20
409.367004
 30
0.0
  0
VERTEX
  5
41E
330
418
100
AcDbEntity
  8
0
370
     0
100
AcDbVertex
100
AcDb2dVertex
 10
682.897217
 20
408.118073
 30
0.0
  0
VERTEX
  5
41F
330
418
100
AcDbEntity
  8
0
370
     0
100
AcDbVertex
100
AcDb2dVertex
 10
683.677185
 20
406.889252
 30
0.0
  0
VERTEX
  5
420
330
418
100
AcDbEntity
  8
0
370
     0
100
AcDbVertex
100
AcDb2dVertex
 10
684.514587
 20
405.682281
 30
0.0
  0
VERTEX
  5
421
330
418
100
AcDbEntity
  8
0
370
     0
100
AcDbVertex
100
AcDb2dVertex
 10
685.029175
 20
404.988953
 30
0.0
  0
VERTEX
  5
422
330
418
100
AcDbEntity
  8
0
370
     0
100
AcDbVertex
100
AcDb2dVertex
 10
685.562683
 20
404.303925
 30
0.0
  0
VERTEX
  5
423
330
418
100
AcDbEntity
  8
0
370
     0
100
AcDbVertex
100
AcDb2dVertex
 10
686.685486
 20
402.960083
 30
0.0
  0
VERTEX
  5
424
330
418
100
AcDbEntity
  8
0
370
     0
100
AcDbVertex
100
AcDb2dVertex
 10
687.88092
 20
401.653259
 30
0.0
  0
VERTEX
  5
425
330
418
100
AcDbEntity
  8
0
370
     0
100
AcDbVertex
100
AcDb2dVertex
 10
689.14679
 20
400.385864
 30
0.0
  0
VERTEX
  5
426
330
418
100
AcDbEntity
  8
0
370
     0
100
AcDbVertex
100
AcDb2dVertex
 10
690.480652
 20
399.160278
 30
0.0
  0
VERTEX
  5
427
330
418
100
AcDbEntity
  8
0
370
     0
100
AcDbVertex
100
AcDb2dVertex
 10
691.865662
 20
397.99054
 30
0.0
  0
VERTEX
  5
428
330
418
100
AcDbEntity
  8
0
370
     0
100
AcDbVertex
100
AcDb2dVertex
 10
693.312378
 20
396.866089
 30
0.0
  0
VERTEX
  5
429
330
418
100
AcDbEntity
  8
0
370
     0
100
AcDbVertex
100
AcDb2dVertex
 10
694.818176
 20
395.789001
 30
0.0
  0
VERTEX
  5
42A
330
418
100
AcDbEntity
  8
0
370
     0
100
AcDbVertex
100
AcDb2dVertex
 10
696.380371
 20
394.761261
 30
0.0
  0
VERTEX
  5
42B
330
418
100
AcDbEntity
  8
0
370
     0
100
AcDbVertex
100
AcDb2dVertex
 10
697.996033
 20
393.784729
 30
0.0
  0
VERTEX
  5
42C
330
418
100
AcDbEntity
  8
0
370
     0
100
AcDbVertex
100
AcDb2dVertex
 10
699.662354
 20
392.861176
 30
0.0
  0
VERTEX
  5
42D
330
418
100
AcDbEntity
  8
0
370
     0
100
AcDbVertex
100
AcDb2dVertex
 10
701.376099
 20
391.99234
 30
0.0
  0
VERTEX
  5
42E
330
418
100
AcDbEntity
  8
0
370
     0
100
AcDbVertex
100
AcDb2dVertex
 10
703.134277
 20
391.17981
 30
0.0
  0
VERTEX
  5
42F
330
418
100
AcDbEntity
  8
0
370
     0
100
AcDbVertex
100
AcDb2dVertex
 10
704.933594
 20
390.425018
 30
0.0
  0
VERTEX
  5
430
330
418
100
AcDbEntity
  8
0
370
     0
100
AcDbVertex
100
AcDb2dVertex
 10
706.770752
 20
389.729401
 30
0.0
  0
VERTEX
  5
431
330
418
100
AcDbEntity
  8
0
370
     0
100
AcDbVertex
100
AcDb2dVertex
 10
708.677551
 20
389.083008
 30
0.0
  0
VERTEX
  5
432
330
418
100
AcDbEntity
  8
0
370
     0
100
AcDbVertex
100
AcDb2dVertex
 10
710.616516
 20
388.500549
 30
0.0
  0
VERTEX
  5
433
330
418
100
AcDbEntity
  8
0
370
     0
100
AcDbVertex
100
AcDb2dVertex
 10
712.583923
 20
387.983124
 30
0.0
  0
VERTEX
  5
434
330
418
100
AcDbEntity
  8
0
370
     0
100
AcDbVertex
100
AcDb2dVertex
 10
714.576111
 20
387.531708
 30
0.0
  0
VERTEX
  5
435
330
418
100
AcDbEntity
  8
0
370
     0
100
AcDbVertex
100
AcDb2dVertex
 10
716.589233
 20
387.147156
 30
0.0
  0
VERTEX
  5
436
330
418
100
AcDbEntity
  8
0
370
     0
100
AcDbVertex
100
AcDb2dVertex
 10
718.619507
 20
386.8302
 30
0.0
  0
VERTEX
  5
437
330
418
100
AcDbEntity
  8
0
370
     0
100
AcDbVertex
100
AcDb2dVertex
 10
720.663147
 20
386.581421
 30
0.0
  0
VERTEX
  5
438
330
418
100
AcDbEntity
  8
0
370
     0
100
AcDbVertex
100
AcDb2dVertex
 10
722.716187
 20
386.401306
 30
0.0
  0
VERTEX
  5
439
330
418
100
AcDbEntity
  8
0
370
     0
100
AcDbVertex
100
AcDb2dVertex
 10
724.774902
 20
386.290161
 30
0.0
  0
VERTEX
  5
43A
330
418
100
AcDbEntity
  8
0
370
     0
100
AcDbVertex
100
AcDb2dVertex
 10
726.835327
 20
386.248199
 30
0.0
  0
VERTEX
  5
43B
330
418
100
AcDbEntity
  8
0
370
     0
100
AcDbVertex
100
AcDb2dVertex
 10
728.893494
 20
386.275513
 30
0.0
  0
VERTEX
  5
43C
330
418
100
AcDbEntity
  8
0
370
     0
100
AcDbVertex
100
AcDb2dVertex
 10
730.945679
 20
386.37207
 30
0.0
  0
VERTEX
  5
43D
330
418
100
AcDbEntity
  8
0
370
     0
100
AcDbVertex
100
AcDb2dVertex
 10
732.987854
 20
386.537628
 30
0.0
  0
VERTEX
  5
43E
330
418
100
AcDbEntity
  8
0
370
     0
100
AcDbVertex
100
AcDb2dVertex
 10
735.016235
 20
386.771942
 30
0.0
  0
VERTEX
  5
43F
330
418
100
AcDbEntity
  8
0
370
     0
100
AcDbVertex
100
AcDb2dVertex
 10
737.026917
 20
387.074524
 30
0.0
  0
VERTEX
  5
440
330
418
100
AcDbEntity
  8
0
370
     0
100
AcDbVertex
100
AcDb2dVertex
 10
737.753967
 20
387.201538
 30
0.0
  0
SEQEND
  5
441
330
418
100
AcDbEntity
  8
0
 62
     7
370
    35
  0
POLYLINE
  5
442
330
1F
100
AcDbEntity
  8
0
 62
     7
370
    35
100
AcDb2dPolyline
 66
     1
 10
0.0
 20
0.0
 30
0.0
  0
VERTEX
  5
443
330
442
100
AcDbEntity
  8
0
370
     0
100
AcDbVertex
100
AcDb2dVertex
 10
901.364685
 20
417.825409
 30
0.0
  0
VERTEX
  5
444
330
442
100
AcDbEntity
  8
0
370
     0
100
AcDbVertex
100
AcDb2dVertex
 10
896.689819
 20
431.557587
 30
0.0
  0
VERTEX
  5
445
330
442
100
AcDbEntity
  8
0
370
     0
100
AcDbVertex
100
AcDb2dVertex
 10
892.010132
 20
445.387848
 30
0.0
  0
VERTEX
  5
446
330
442
100
AcDbEntity
  8
0
370
     0
100
AcDbVertex
100
AcDb2dVertex
 10
888.235413
 20
456.607727
 30
0.0
  0
VERTEX
  5
447
330
442
100
AcDbEntity
  8
0
370
     0
100
AcDbVertex
100
AcDb2dVertex
 10
882.549011
 20
473.638916
 30
0.0
  0
SEQEND
  5
448
330
442
100
AcDbEntity
  8
0
 62
     7
370
    35
  0
ELLIPSE
  5
449
330
1F
100
AcDbEntity
  8
0
 62
     7
370
    35
100
AcDbEllipse
 10
882.128052
 20
487.095306
 30
0.0
 11
21.39996337890625
 21
6.949310302734374
 31
0.0
210
0.0
220
0.0
230
1.0
 40
0.582776
 41
4.544682156803533
 42
5.963624686719087
  0
POLYLINE
  5
44A
330
1F
100
AcDbEntity
  8
0
 62
     7
370
    35
100
AcDb2dPolyline
 66
     1
 10
0.0
 20
0.0
 30
0.0
  0
VERTEX
  5
44B
330
44A
100
AcDbEntity
  8
0
370
     0
100
AcDbVertex
100
AcDb2dVertex
 10
925.449585
 20
425.156921
 30
0.0
  0
VERTEX
  5
44C
330
44A
100
AcDbEntity
  8
0
370
     0
100
AcDbVertex
100
AcDb2dVertex
 10
923.399536
 20
431.04541
 30
0.0
  0
VERTEX
  5
44D
330
44A
100
AcDbEntity
  8
0
370
     0
100
AcDbVertex
100
AcDb2dVertex
 10
919.554504
 20
442.200928
 30
0.0
  0
VERTEX
  5
44E
330
44A
100
AcDbEntity
  8
0
370
     0
100
AcDbVertex
100
AcDb2dVertex
 10
915.737366
 20
453.429047
 30
0.0
  0
VERTEX
  5
44F
330
44A
100
AcDbEntity
  8
0
370
     0
100
AcDbVertex
100
AcDb2dVertex
 10
912.35614
 20
463.50592
 30
0.0
  0
VERTEX
  5
450
330
44A
100
AcDbEntity
  8
0
370
     0
100
AcDbVertex
100
AcDb2dVertex
 10
908.977051
 20
473.695892
 30
0.0
  0
VERTEX
  5
451
330
44A
100
AcDbEntity
  8
0
370
     0
100
AcDbVertex
100
AcDb2dVertex
 10
906.34668
 20
481.705444
 30
0.0
  0
VERTEX
  5
452
330
44A
100
AcDbEntity
  8
0
370
     0
100
AcDbVertex
100
AcDb2dVertex
 10
903.716858
 20
489.774933
 30
0.0
  0
SEQEND
  5
453
330
44A
100
AcDbEntity
  8
0
 62
     7
370
    35
  0
POLYLINE
  5
454
330
1F
100
AcDbEntity
  8
0
 62
     7
370
    35
100
AcDb2dPolyline
 66
     1
 10
0.0
 20
0.0
 30
0.0
  0
VERTEX
  5
455
330
454
100
AcDbEntity
  8
0
370
     0
100
AcDbVertex
100
AcDb2dVertex
 10
658.591797
 20
445.344177
 30
0.0
  0
VERTEX
  5
456
330
454
100
AcDbEntity
  8
0
370
     0
100
AcDbVertex
100
AcDb2dVertex
 10
665.646484
 20
424.214294
 30
0.0
  0
VERTEX
  5
457
330
454
100
AcDbEntity
  8
0
370
     0
100
AcDbVertex
100
AcDb2dVertex
 10
669.478699
 20
412.82962
 30
0.0
  0
VERTEX
  5
458
330
454
100
AcDbEntity
  8
0
370
     0
100
AcDbVertex
100
AcDb2dVertex
 10
673.293945
 20
401.568176
 30
0.0
  0
VERTEX
  5
459
330
454
100
AcDbEntity
  8
0
370
     0
100
AcDbVertex
100
AcDb2dVertex
 10
680.077942
 20
381.724731
 30
0.0
  0
VERTEX
  5
45A
330
454
100
AcDbEntity
  8
0
370
     0
100
AcDbVertex
100
AcDb2dVertex
 10
685.378418
 20
366.366516
 30
0.0
  0
SEQEND
  5
45B
330
454
100
AcDbEntity
  8
0
 62
     7
370
    35
  0
LINE
  5
45C
330
1F
100
AcDbEntity
  8
0
 62
     7
370
    35
100
AcDbLine
 10
658.591797
 20
445.344177
 30
0.0
 11
658.454651
 21
446.866974
 31
0.0
  0
ELLIPSE
  5
45D
330
1F
100
AcDbEntity
  8
0
 62
     7
370
    35
100
AcDbEllipse
 10
651.536255
 20
496.288483
 30
0.0
 11
2.3675537109375
 21
0.802978515625
 31
0.0
210
0.0
220
0.0
230
1.0
 40
0.60781
 41
6.283183819599726
 42
7.613947326212135
  0
LINE
  5
45E
330
1F
100
AcDbEntity
  8
0
 62
     7
370
    35
100
AcDbLine
 10
651.625061
 20
497.877136
 30
0.0
 11
679.893677
 21
414.529755
 31
0.0
  0
POLYLINE
  5
45F
330
1F
100
AcDbEntity
  8
0
 62
     7
370
    35
100
AcDb2dPolyline
 66
     1
 10
0.0
 20
0.0
 30
0.0
  0
VERTEX
  5
460
330
45F
100
AcDbEntity
  8
0
370
     0
100
AcDbVertex
100
AcDb2dVertex
 10
859.74054
 20
484.170166
 30
0.0
  0
VERTEX
  5
461
330
45F
100
AcDbEntity
  8
0
370
     0
100
AcDbVertex
100
AcDb2dVertex
 10
859.834534
 20
484.190247
 30
0.0
  0
VERTEX
  5
462
330
45F
100
AcDbEntity
  8
0
370
     0
100
AcDbVertex
100
AcDb2dVertex
 10
861.075195
 20
484.416931
 30
0.0
  0
VERTEX
  5
463
330
45F
100
AcDbEntity
  8
0
370
     0
100
AcDbVertex
100
AcDb2dVertex
 10
862.332397
 20
484.576141
 30
0.0
  0
VERTEX
  5
464
330
45F
100
AcDbEntity
  8
0
370
     0
100
AcDbVertex
100
AcDb2dVertex
 10
863.600952
 20
484.666931
 30
0.0
  0
VERTEX
  5
465
330
45F
100
AcDbEntity
  8
0
370
     0
100
AcDbVertex
100
AcDb2dVertex
 10
864.875305
 20
484.688568
 30
0.0
  0
VERTEX
  5
466
330
45F
100
AcDbEntity
  8
0
370
     0
100
AcDbVertex
100
AcDb2dVertex
 10
866.149963
 20
484.640503
 30
0.0
  0
VERTEX
  5
467
330
45F
100
AcDbEntity
  8
0
370
     0
100
AcDbVertex
100
AcDb2dVertex
 10
867.41925
 20
484.522522
 30
0.0
  0
VERTEX
  5
468
330
45F
100
AcDbEntity
  8
0
370
     0
100
AcDbVertex
100
AcDb2dVertex
 10
868.67749
 20
484.334656
 30
0.0
  0
VERTEX
  5
469
330
45F
100
AcDbEntity
  8
0
370
     0
100
AcDbVertex
100
AcDb2dVertex
 10
869.918823
 20
484.077209
 30
0.0
  0
VERTEX
  5
46A
330
45F
100
AcDbEntity
  8
0
370
     0
100
AcDbVertex
100
AcDb2dVertex
 10
871.183472
 20
483.736969
 30
0.0
  0
VERTEX
  5
46B
330
45F
100
AcDbEntity
  8
0
370
     0
100
AcDbVertex
100
AcDb2dVertex
 10
871.804504
 20
483.539307
 30
0.0
  0
VERTEX
  5
46C
330
45F
100
AcDbEntity
  8
0
370
     0
100
AcDbVertex
100
AcDb2dVertex
 10
872.416931
 20
483.323517
 30
0.0
  0
VERTEX
  5
46D
330
45F
100
AcDbEntity
  8
0
370
     0
100
AcDbVertex
100
AcDb2dVertex
 10
873.218689
 20
483.007965
 30
0.0
  0
VERTEX
  5
46E
330
45F
100
AcDbEntity
  8
0
370
     0
100
AcDbVertex
100
AcDb2dVertex
 10
874.001648
 20
482.661102
 30
0.0
  0
VERTEX
  5
46F
330
45F
100
AcDbEntity
  8
0
370
     0
100
AcDbVertex
100
AcDb2dVertex
 10
874.763916
 20
482.283569
 30
0.0
  0
VERTEX
  5
470
330
45F
100
AcDbEntity
  8
0
370
     0
100
AcDbVertex
100
AcDb2dVertex
 10
875.648621
 20
481.791077
 30
0.0
  0
VERTEX
  5
471
330
45F
100
AcDbEntity
  8
0
370
     0
100
AcDbVertex
100
AcDb2dVertex
 10
876.49762
 20
481.256897
 30
0.0
  0
VERTEX
  5
472
330
45F
100
AcDbEntity
  8
0
370
     0
100
AcDbVertex
100
AcDb2dVertex
 10
877.307678
 20
480.682648
 30
0.0
  0
VERTEX
  5
473
330
45F
100
AcDbEntity
  8
0
370
     0
100
AcDbVertex
100
AcDb2dVertex
 10
878.075867
 20
480.070099
 30
0.0
  0
VERTEX
  5
474
330
45F
100
AcDbEntity
  8
0
370
     0
100
AcDbVertex
100
AcDb2dVertex
 10
878.799194
 20
479.421234
 30
0.0
  0
VERTEX
  5
475
330
45F
100
AcDbEntity
  8
0
370
     0
100
AcDbVertex
100
AcDb2dVertex
 10
879.509949
 20
478.7005
 30
0.0
  0
VERTEX
  5
476
330
45F
100
AcDbEntity
  8
0
370
     0
100
AcDbVertex
100
AcDb2dVertex
 10
880.164795
 20
477.944611
 30
0.0
  0
VERTEX
  5
477
330
45F
100
AcDbEntity
  8
0
370
     0
100
AcDbVertex
100
AcDb2dVertex
 10
880.760925
 20
477.156525
 30
0.0
  0
VERTEX
  5
478
330
45F
100
AcDbEntity
  8
0
370
     0
100
AcDbVertex
100
AcDb2dVertex
 10
881.295837
 20
476.339386
 30
0.0
  0
VERTEX
  5
479
330
45F
100
AcDbEntity
  8
0
370
     0
100
AcDbVertex
100
AcDb2dVertex
 10
881.767334
 20
475.496429
 30
0.0
  0
VERTEX
  5
47A
330
45F
100
AcDbEntity
  8
0
370
     0
100
AcDbVertex
100
AcDb2dVertex
 10
882.173462
 20
474.630981
 30
0.0
  0
VERTEX
  5
47B
330
45F
100
AcDbEntity
  8
0
370
     0
100
AcDbVertex
100
AcDb2dVertex
 10
882.512695
 20
473.746582
 30
0.0
  0
VERTEX
  5
47C
330
45F
100
AcDbEntity
  8
0
370
     0
100
AcDbVertex
100
AcDb2dVertex
 10
882.549011
 20
473.638947
 30
0.0
  0
SEQEND
  5
47D
330
45F
100
AcDbEntity
  8
0
 62
     7
370
    35
  0
ELLIPSE
  5
47E
330
1F
100
AcDbEntity
  8
0
 62
     7
370
    35
100
AcDbEllipse
 10
859.588745
 20
497.432587
 30
0.0
 11
4.87286376953125
 21
-21.96600341796875
 31
0.0
210
0.0
220
0.0
230
1.0
 40
0.148224
 41
3.889676691312813
 42
5.327331707045517
  0
POLYLINE
  5
47F
330
1F
100
AcDbEntity
  8
0
 62
     7
370
    35
100
AcDb2dPolyline
 66
     1
 10
0.0
 20
0.0
 30
0.0
  0
VERTEX
  5
480
330
47F
100
AcDbEntity
  8
0
370
     0
100
AcDbVertex
100
AcDb2dVertex
 10
853.802185
 20
513.042175
 30
0.0
  0
VERTEX
  5
481
330
47F
100
AcDbEntity
  8
0
370
     0
100
AcDbVertex
100
AcDb2dVertex
 10
854.317993
 20
513.135071
 30
0.0
  0
VERTEX
  5
482
330
47F
100
AcDbEntity
  8
0
370
     0
100
AcDbVertex
100
AcDb2dVertex
 10
855.874207
 20
513.382507
 30
0.0
  0
VERTEX
  5
483
330
47F
100
AcDbEntity
  8
0
370
     0
100
AcDbVertex
100
AcDb2dVertex
 10
857.857178
 20
513.627808
 30
0.0
  0
VERTEX
  5
484
330
47F
100
AcDbEntity
  8
0
370
     0
100
AcDbVertex
100
AcDb2dVertex
 10
859.854736
 20
513.797424
 30
0.0
  0
VERTEX
  5
485
330
47F
100
AcDbEntity
  8
0
370
     0
100
AcDbVertex
100
AcDb2dVertex
 10
861.863037
 20
513.891052
 30
0.0
  0
VERTEX
  5
486
330
47F
100
AcDbEntity
  8
0
370
     0
100
AcDbVertex
100
AcDb2dVertex
 10
863.878113
 20
513.908325
 30
0.0
  0
VERTEX
  5
487
330
47F
100
AcDbEntity
  8
0
370
     0
100
AcDbVertex
100
AcDb2dVertex
 10
865.895813
 20
513.84906
 30
0.0
  0
VERTEX
  5
488
330
47F
100
AcDbEntity
  8
0
370
     0
100
AcDbVertex
100
AcDb2dVertex
 10
867.912109
 20
513.712952
 30
0.0
  0
VERTEX
  5
489
330
47F
100
AcDbEntity
  8
0
370
     0
100
AcDbVertex
100
AcDb2dVertex
 10
869.922852
 20
513.499939
 30
0.0
  0
VERTEX
  5
48A
330
47F
100
AcDbEntity
  8
0
370
     0
100
AcDbVertex
100
AcDb2dVertex
 10
871.923828
 20
513.209961
 30
0.0
  0
VERTEX
  5
48B
330
47F
100
AcDbEntity
  8
0
370
     0
100
AcDbVertex
100
AcDb2dVertex
 10
873.910645
 20
512.843018
 30
0.0
  0
VERTEX
  5
48C
330
47F
100
AcDbEntity
  8
0
370
     0
100
AcDbVertex
100
AcDb2dVertex
 10
875.879028
 20
512.399292
 30
0.0
  0
VERTEX
  5
48D
330
47F
100
AcDbEntity
  8
0
370
     0
100
AcDbVertex
100
AcDb2dVertex
 10
876.855896
 20
512.148438
 30
0.0
  0
VERTEX
  5
48E
330
47F
100
AcDbEntity
  8
0
370
     0
100
AcDbVertex
100
AcDb2dVertex
 10
877.826477
 20
511.878418
 30
0.0
  0
VERTEX
  5
48F
330
47F
100
AcDbEntity
  8
0
370
     0
100
AcDbVertex
100
AcDb2dVertex
 10
878.78833
 20
511.589905
 30
0.0
  0
VERTEX
  5
490
330
47F
100
AcDbEntity
  8
0
370
     0
100
AcDbVertex
100
AcDb2dVertex
 10
879.742676
 20
511.28241
 30
0.0
  0
VERTEX
  5
491
330
47F
100
AcDbEntity
  8
0
370
     0
100
AcDbVertex
100
AcDb2dVertex
 10
881.581238
 20
510.628113
 30
0.0
  0
VERTEX
  5
492
330
47F
100
AcDbEntity
  8
0
370
     0
100
AcDbVertex
100
AcDb2dVertex
 10
882.487793
 20
510.274139
 30
0.0
  0
VERTEX
  5
493
330
47F
100
AcDbEntity
  8
0
370
     0
100
AcDbVertex
100
AcDb2dVertex
 10
883.385132
 20
509.902344
 30
0.0
  0
VERTEX
  5
494
330
47F
100
AcDbEntity
  8
0
370
     0
100
AcDbVertex
100
AcDb2dVertex
 10
884.712585
 20
509.311554
 30
0.0
  0
VERTEX
  5
495
330
47F
100
AcDbEntity
  8
0
370
     0
100
AcDbVertex
100
AcDb2dVertex
 10
886.016113
 20
508.681305
 30
0.0
  0
VERTEX
  5
496
330
47F
100
AcDbEntity
  8
0
370
     0
100
AcDbVertex
100
AcDb2dVertex
 10
887.29364
 20
508.012054
 30
0.0
  0
VERTEX
  5
497
330
47F
100
AcDbEntity
  8
0
370
     0
100
AcDbVertex
100
AcDb2dVertex
 10
888.543152
 20
507.304291
 30
0.0
  0
VERTEX
  5
498
330
47F
100
AcDbEntity
  8
0
370
     0
100
AcDbVertex
100
AcDb2dVertex
 10
889.934326
 20
506.449005
 30
0.0
  0
VERTEX
  5
499
330
47F
100
AcDbEntity
  8
0
370
     0
100
AcDbVertex
100
AcDb2dVertex
 10
891.283264
 20
505.545105
 30
0.0
  0
VERTEX
  5
49A
330
47F
100
AcDbEntity
  8
0
370
     0
100
AcDbVertex
100
AcDb2dVertex
 10
892.586792
 20
504.593719
 30
0.0
  0
VERTEX
  5
49B
330
47F
100
AcDbEntity
  8
0
370
     0
100
AcDbVertex
100
AcDb2dVertex
 10
893.841919
 20
503.5961
 30
0.0
  0
VERTEX
  5
49C
330
47F
100
AcDbEntity
  8
0
370
     0
100
AcDbVertex
100
AcDb2dVertex
 10
895.045532
 20
502.553619
 30
0.0
  0
VERTEX
  5
49D
330
47F
100
AcDbEntity
  8
0
370
     0
100
AcDbVertex
100
AcDb2dVertex
 10
896.19458
 20
501.467834
 30
0.0
  0
VERTEX
  5
49E
330
47F
100
AcDbEntity
  8
0
370
     0
100
AcDbVertex
100
AcDb2dVertex
 10
897.286011
 20
500.340454
 30
0.0
  0
VERTEX
  5
49F
330
47F
100
AcDbEntity
  8
0
370
     0
100
AcDbVertex
100
AcDb2dVertex
 10
898.327209
 20
499.161163
 30
0.0
  0
VERTEX
  5
4A0
330
47F
100
AcDbEntity
  8
0
370
     0
100
AcDbVertex
100
AcDb2dVertex
 10
899.303528
 20
497.943451
 30
0.0
  0
VERTEX
  5
4A1
330
47F
100
AcDbEntity
  8
0
370
     0
100
AcDbVertex
100
AcDb2dVertex
 10
900.212097
 20
496.689728
 30
0.0
  0
VERTEX
  5
4A2
330
47F
100
AcDbEntity
  8
0
370
     0
100
AcDbVertex
100
AcDb2dVertex
 10
901.050171
 20
495.402557
 30
0.0
  0
VERTEX
  5
4A3
330
47F
100
AcDbEntity
  8
0
370
     0
100
AcDbVertex
100
AcDb2dVertex
 10
901.815002
 20
494.084595
 30
0.0
  0
VERTEX
  5
4A4
330
47F
100
AcDbEntity
  8
0
370
     0
100
AcDbVertex
100
AcDb2dVertex
 10
902.16925
 20
493.414978
 30
0.0
  0
VERTEX
  5
4A5
330
47F
100
AcDbEntity
  8
0
370
     0
100
AcDbVertex
100
AcDb2dVertex
 10
902.504272
 20
492.7388
 30
0.0
  0
VERTEX
  5
4A6
330
47F
100
AcDbEntity
  8
0
370
     0
100
AcDbVertex
100
AcDb2dVertex
 10
902.920654
 20
491.827667
 30
0.0
  0
VERTEX
  5
4A7
330
47F
100
AcDbEntity
  8
0
370
     0
100
AcDbVertex
100
AcDb2dVertex
 10
903.301819
 20
490.906464
 30
0.0
  0
VERTEX
  5
4A8
330
47F
100
AcDbEntity
  8
0
370
     0
100
AcDbVertex
100
AcDb2dVertex
 10
903.716858
 20
489.774933
 30
0.0
  0
SEQEND
  5
4A9
330
47F
100
AcDbEntity
  8
0
 62
     7
370
    35
  0
LINE
  5
4AA
330
1F
100
AcDbEntity
  8
0
 62
     7
370
    35
100
AcDbLine
 10
903.716858
 20
489.774933
 30
0.0
 11
912.526123
 21
543.731934
 31
0.0
  0
LINE
  5
4AB
330
1F
100
AcDbEntity
  8
0
 62
     7
370
    35
100
AcDbLine
 10
935.129822
 20
433.088745
 30
0.0
 11
940.794739
 21
460.384552
 31
0.0
  0
LINE
  5
4AC
330
1F
100
AcDbEntity
  8
0
 62
     7
370
    35
100
AcDbLine
 10
940.794739
 20
460.384552
 30
0.0
 11
912.526123
 21
543.731934
 31
0.0
  0
ELLIPSE
  5
4AD
330
1F
100
AcDbEntity
  8
0
 62
     7
370
    35
100
AcDbEllipse
 10
943.193481
 20
460.682281
 30
0.0
 11
-2.3675537109375
 21
-0.802978515625
 31
0.0
210
0.0
220
0.0
230
1.0
 40
0.60781
 41
4.472354623869053
 42
5.955884488064233
  0
LINE
  5
4AE
330
1F
100
AcDbEntity
  8
0
 62
     7
370
    35
100
AcDbLine
 10
943.282288
 20
462.270935
 30
0.0
 11
915.013672
 21
545.618286
 31
0.0
  0
ELLIPSE
  5
4AF
330
1F
100
AcDbEntity
  8
0
 62
     7
370
    35
100
AcDbEllipse
 10
914.924866
 20
544.029663
 30
0.0
 11
-2.3675537109375
 21
-0.802978515625
 31
0.0
210
0.0
220
0.0
230
1.0
 40
0.60781
 41
4.472354623869053
 42
5.955884488064233
  0
ELLIPSE
  5
4B0
330
1F
100
AcDbEntity
  8
0
 62
     7
370
    35
100
AcDbEllipse
 10
698.478394
 20
452.129761
 30
0.0
 11
41.17877197265625
 21
-3.05120849609375
 31
0.0
210
0.0
220
0.0
230
1.0
 40
0.763697
 41
1.892505972323214
 42
2.652289942655121
  0
ARC
  5
4B1
330
1F
100
AcDbEntity
  8
0
 62
     7
370
    35
100
AcDbCircle
 10
682.82782
 20
453.618317
 30
0.0
 40
25.60922766325518
100
AcDbArc
 50
189.132477
 51
198.849855
  0
LINE
  5
4B2
330
1F
100
AcDbEntity
  8
0
 62
     7
370
    35
100
AcDbLine
 10
687.668701
 20
482.92926
 30
0.0
 11
685.873474
 21
538.477234
 31
0.0
  0
POLYLINE
  5
4B3
330
1F
100
AcDbEntity
  8
0
 62
     7
370
    35
100
AcDb2dPolyline
 66
     1
 10
0.0
 20
0.0
 30
0.0
  0
VERTEX
  5
4B4
330
4B3
100
AcDbEntity
  8
0
370
     0
100
AcDbVertex
100
AcDb2dVertex
 10
652.575806
 20
503.300171
 30
0.0
  0
VERTEX
  5
4B5
330
4B3
100
AcDbEntity
  8
0
370
     0
100
AcDbVertex
100
AcDb2dVertex
 10
652.4823
 20
504.751862
 30
0.0
  0
VERTEX
  5
4B6
330
4B3
100
AcDbEntity
  8
0
370
     0
100
AcDbVertex
100
AcDb2dVertex
 10
652.467285
 20
506.204041
 30
0.0
  0
VERTEX
  5
4B7
330
4B3
100
AcDbEntity
  8
0
370
     0
100
AcDbVertex
100
AcDb2dVertex
 10
652.530884
 20
507.653748
 30
0.0
  0
VERTEX
  5
4B8
330
4B3
100
AcDbEntity
  8
0
370
     0
100
AcDbVertex
100
AcDb2dVertex
 10
652.673035
 20
509.098053
 30
0.0
  0
VERTEX
  5
4B9
330
4B3
100
AcDbEntity
  8
0
370
     0
100
AcDbVertex
100
AcDb2dVertex
 10
652.893311
 20
510.534119
 30
0.0
  0
VERTEX
  5
4BA
330
4B3
100
AcDbEntity
  8
0
370
     0
100
AcDbVertex
100
AcDb2dVertex
 10
653.191223
 20
511.959015
 30
0.0
  0
VERTEX
  5
4BB
330
4B3
100
AcDbEntity
  8
0
370
     0
100
AcDbVertex
100
AcDb2dVertex
 10
653.56604
 20
513.369995
 30
0.0
  0
VERTEX
  5
4BC
330
4B3
100
AcDbEntity
  8
0
370
     0
100
AcDbVertex
100
AcDb2dVertex
 10
654.016724
 20
514.764282
 30
0.0
  0
VERTEX
  5
4BD
330
4B3
100
AcDbEntity
  8
0
370
     0
100
AcDbVertex
100
AcDb2dVertex
 10
654.542114
 20
516.139221
 30
0.0
  0
VERTEX
  5
4BE
330
4B3
100
AcDbEntity
  8
0
370
     0
100
AcDbVertex
100
AcDb2dVertex
 10
655.140991
 20
517.492188
 30
0.0
  0
VERTEX
  5
4BF
330
4B3
100
AcDbEntity
  8
0
370
     0
100
AcDbVertex
100
AcDb2dVertex
 10
655.811646
 20
518.820679
 30
0.0
  0
VERTEX
  5
4C0
330
4B3
100
AcDbEntity
  8
0
370
     0
100
AcDbVertex
100
AcDb2dVertex
 10
656.552551
 20
520.122192
 30
0.0
  0
VERTEX
  5
4C1
330
4B3
100
AcDbEntity
  8
0
370
     0
100
AcDbVertex
100
AcDb2dVertex
 10
656.965942
 20
520.789124
 30
0.0
  0
VERTEX
  5
4C2
330
4B3
100
AcDbEntity
  8
0
370
     0
100
AcDbVertex
100
AcDb2dVertex
 10
657.397644
 20
521.447754
 30
0.0
  0
VERTEX
  5
4C3
330
4B3
100
AcDbEntity
  8
0
370
     0
100
AcDbVertex
100
AcDb2dVertex
 10
658.314636
 20
522.739014
 30
0.0
  0
VERTEX
  5
4C4
330
4B3
100
AcDbEntity
  8
0
370
     0
100
AcDbVertex
100
AcDb2dVertex
 10
659.30127
 20
523.99353
 30
0.0
  0
VERTEX
  5
4C5
330
4B3
100
AcDbEntity
  8
0
370
     0
100
AcDbVertex
100
AcDb2dVertex
 10
660.35498
 20
525.209229
 30
0.0
  0
VERTEX
  5
4C6
330
4B3
100
AcDbEntity
  8
0
370
     0
100
AcDbVertex
100
AcDb2dVertex
 10
661.473083
 20
526.383911
 30
0.0
  0
VERTEX
  5
4C7
330
4B3
100
AcDbEntity
  8
0
370
     0
100
AcDbVertex
100
AcDb2dVertex
 10
662.653015
 20
527.515808
 30
0.0
  0
VERTEX
  5
4C8
330
4B3
100
AcDbEntity
  8
0
370
     0
100
AcDbVertex
100
AcDb2dVertex
 10
663.891907
 20
528.603149
 30
0.0
  0
VERTEX
  5
4C9
330
4B3
100
AcDbEntity
  8
0
370
     0
100
AcDbVertex
100
AcDb2dVertex
 10
665.186951
 20
529.644226
 30
0.0
  0
VERTEX
  5
4CA
330
4B3
100
AcDbEntity
  8
0
370
     0
100
AcDbVertex
100
AcDb2dVertex
 10
666.535278
 20
530.637634
 30
0.0
  0
VERTEX
  5
4CB
330
4B3
100
AcDbEntity
  8
0
370
     0
100
AcDbVertex
100
AcDb2dVertex
 10
667.934082
 20
531.582031
 30
0.0
  0
VERTEX
  5
4CC
330
4B3
100
AcDbEntity
  8
0
370
     0
100
AcDbVertex
100
AcDb2dVertex
 10
668.712891
 20
532.073425
 30
0.0
  0
VERTEX
  5
4CD
330
4B3
100
AcDbEntity
  8
0
370
     0
100
AcDbVertex
100
AcDb2dVertex
 10
669.505249
 20
532.549805
 30
0.0
  0
VERTEX
  5
4CE
330
4B3
100
AcDbEntity
  8
0
370
     0
100
AcDbVertex
100
AcDb2dVertex
 10
671.128662
 20
533.457092
 30
0.0
  0
VERTEX
  5
4CF
330
4B3
100
AcDbEntity
  8
0
370
     0
100
AcDbVertex
100
AcDb2dVertex
 10
672.800598
 20
534.302673
 30
0.0
  0
VERTEX
  5
4D0
330
4B3
100
AcDbEntity
  8
0
370
     0
100
AcDbVertex
100
AcDb2dVertex
 10
674.517395
 20
535.085449
 30
0.0
  0
VERTEX
  5
4D1
330
4B3
100
AcDbEntity
  8
0
370
     0
100
AcDbVertex
100
AcDb2dVertex
 10
676.275391
 20
535.804565
 30
0.0
  0
VERTEX
  5
4D2
330
4B3
100
AcDbEntity
  8
0
370
     0
100
AcDbVertex
100
AcDb2dVertex
 10
678.070923
 20
536.459106
 30
0.0
  0
VERTEX
  5
4D3
330
4B3
100
AcDbEntity
  8
0
370
     0
100
AcDbVertex
100
AcDb2dVertex
 10
679.900269
 20
537.04834
 30
0.0
  0
VERTEX
  5
4D4
330
4B3
100
AcDbEntity
  8
0
370
     0
100
AcDbVertex
100
AcDb2dVertex
 10
681.759949
 20
537.571777
 30
0.0
  0
VERTEX
  5
4D5
330
4B3
100
AcDbEntity
  8
0
370
     0
100
AcDbVertex
100
AcDb2dVertex
 10
683.646301
 20
538.02887
 30
0.0
  0
VERTEX
  5
4D6
330
4B3
100
AcDbEntity
  8
0
370
     0
100
AcDbVertex
100
AcDb2dVertex
 10
685.555908
 20
538.419189
 30
0.0
  0
VERTEX
  5
4D7
330
4B3
100
AcDbEntity
  8
0
370
     0
100
AcDbVertex
100
AcDb2dVertex
 10
685.873474
 20
538.477234
 30
0.0
  0
SEQEND
  5
4D8
330
4B3
100
AcDbEntity
  8
0
 62
     7
370
    35
  0
ELLIPSE
  5
4D9
330
1F
100
AcDbEntity
  8
0
 62
     7
370
    35
100
AcDbEllipse
 10
685.23053
 20
540.21167
 30
0.0
 11
0.44586181640625
 21
-2.459930419921875
 31
0.0
210
0.0
220
0.0
230
1.0
 40
0.188782
 41
0.754657769899897
 42
2.238187634095077
  0
POLYLINE
  5
4DA
330
1F
100
AcDbEntity
  8
0
 62
     7
370
    35
100
AcDb2dPolyline
 66
     1
 10
0.0
 20
0.0
 30
0.0
  0
VERTEX
  5
4DB
330
4DA
100
AcDbEntity
  8
0
370
     0
100
AcDbVertex
100
AcDb2dVertex
 10
651.625061
 20
497.877136
 30
0.0
  0
VERTEX
  5
4DC
330
4DA
100
AcDbEntity
  8
0
370
     0
100
AcDbVertex
100
AcDb2dVertex
 10
651.43927
 20
498.442902
 30
0.0
  0
VERTEX
  5
4DD
330
4DA
100
AcDbEntity
  8
0
370
     0
100
AcDbVertex
100
AcDb2dVertex
 10
651.02887
 20
499.852386
 30
0.0
  0
VERTEX
  5
4DE
330
4DA
100
AcDbEntity
  8
0
370
     0
100
AcDbVertex
100
AcDb2dVertex
 10
650.690002
 20
501.271576
 30
0.0
  0
VERTEX
  5
4DF
330
4DA
100
AcDbEntity
  8
0
370
     0
100
AcDbVertex
100
AcDb2dVertex
 10
650.423096
 20
502.698334
 30
0.0
  0
VERTEX
  5
4E0
330
4DA
100
AcDbEntity
  8
0
370
     0
100
AcDbVertex
100
AcDb2dVertex
 10
650.228516
 20
504.130402
 30
0.0
  0
VERTEX
  5
4E1
330
4DA
100
AcDbEntity
  8
0
370
     0
100
AcDbVertex
100
AcDb2dVertex
 10
650.10675
 20
505.565582
 30
0.0
  0
VERTEX
  5
4E2
330
4DA
100
AcDbEntity
  8
0
370
     0
100
AcDbVertex
100
AcDb2dVertex
 10
650.057861
 20
507.001678
 30
0.0
  0
VERTEX
  5
4E3
330
4DA
100
AcDbEntity
  8
0
370
     0
100
AcDbVertex
100
AcDb2dVertex
 10
650.081909
 20
508.436493
 30
0.0
  0
VERTEX
  5
4E4
330
4DA
100
AcDbEntity
  8
0
370
     0
100
AcDbVertex
100
AcDb2dVertex
 10
650.178833
 20
509.867798
 30
0.0
  0
VERTEX
  5
4E5
330
4DA
100
AcDbEntity
  8
0
370
     0
100
AcDbVertex
100
AcDb2dVertex
 10
650.348633
 20
511.293396
 30
0.0
  0
VERTEX
  5
4E6
330
4DA
100
AcDbEntity
  8
0
370
     0
100
AcDbVertex
100
AcDb2dVertex
 10
650.590942
 20
512.711121
 30
0.0
  0
VERTEX
  5
4E7
330
4DA
100
AcDbEntity
  8
0
370
     0
100
AcDbVertex
100
AcDb2dVertex
 10
650.905396
 20
514.118774
 30
0.0
  0
VERTEX
  5
4E8
330
4DA
100
AcDbEntity
  8
0
370
     0
100
AcDbVertex
100
AcDb2dVertex
 10
651.291565
 20
515.514221
 30
0.0
  0
VERTEX
  5
4E9
330
4DA
100
AcDbEntity
  8
0
370
     0
100
AcDbVertex
100
AcDb2dVertex
 10
651.748779
 20
516.895264
 30
0.0
  0
VERTEX
  5
4EA
330
4DA
100
AcDbEntity
  8
0
370
     0
100
AcDbVertex
100
AcDb2dVertex
 10
652.16864
 20
517.996582
 30
0.0
  0
VERTEX
  5
4EB
330
4DA
100
AcDbEntity
  8
0
370
     0
100
AcDbVertex
100
AcDb2dVertex
 10
652.633789
 20
519.08606
 30
0.0
  0
VERTEX
  5
4EC
330
4DA
100
AcDbEntity
  8
0
370
     0
100
AcDbVertex
100
AcDb2dVertex
 10
653.143799
 20
520.162598
 30
0.0
  0
VERTEX
  5
4ED
330
4DA
100
AcDbEntity
  8
0
370
     0
100
AcDbVertex
100
AcDb2dVertex
 10
653.698181
 20
521.225159
 30
0.0
  0
VERTEX
  5
4EE
330
4DA
100
AcDbEntity
  8
0
370
     0
100
AcDbVertex
100
AcDb2dVertex
 10
654.091309
 20
521.923828
 30
0.0
  0
VERTEX
  5
4EF
330
4DA
100
AcDbEntity
  8
0
370
     0
100
AcDbVertex
100
AcDb2dVertex
 10
654.503601
 20
522.61554
 30
0.0
  0
VERTEX
  5
4F0
330
4DA
100
AcDbEntity
  8
0
370
     0
100
AcDbVertex
100
AcDb2dVertex
 10
654.936768
 20
523.302734
 30
0.0
  0
VERTEX
  5
4F1
330
4DA
100
AcDbEntity
  8
0
370
     0
100
AcDbVertex
100
AcDb2dVertex
 10
655.388916
 20
523.982239
 30
0.0
  0
VERTEX
  5
4F2
330
4DA
100
AcDbEntity
  8
0
370
     0
100
AcDbVertex
100
AcDb2dVertex
 10
656.34729
 20
525.314453
 30
0.0
  0
VERTEX
  5
4F3
330
4DA
100
AcDbEntity
  8
0
370
     0
100
AcDbVertex
100
AcDb2dVertex
 10
657.378845
 20
526.61261
 30
0.0
  0
VERTEX
  5
4F4
330
4DA
100
AcDbEntity
  8
0
370
     0
100
AcDbVertex
100
AcDb2dVertex
 10
658.481628
 20
527.87439
 30
0.0
  0
VERTEX
  5
4F5
330
4DA
100
AcDbEntity
  8
0
370
     0
100
AcDbVertex
100
AcDb2dVertex
 10
659.653809
 20
529.097473
 30
0.0
  0
VERTEX
  5
4F6
330
4DA
100
AcDbEntity
  8
0
370
     0
100
AcDbVertex
100
AcDb2dVertex
 10
660.506653
 20
529.922241
 30
0.0
  0
VERTEX
  5
4F7
330
4DA
100
AcDbEntity
  8
0
370
     0
100
AcDbVertex
100
AcDb2dVertex
 10
661.391174
 20
530.726624
 30
0.0
  0
VERTEX
  5
4F8
330
4DA
100
AcDbEntity
  8
0
370
     0
100
AcDbVertex
100
AcDb2dVertex
 10
662.306519
 20
531.509949
 30
0.0
  0
VERTEX
  5
4F9
330
4DA
100
AcDbEntity
  8
0
370
     0
100
AcDbVertex
100
AcDb2dVertex
 10
663.012878
 20
532.083252
 30
0.0
  0
VERTEX
  5
4FA
330
4DA
100
AcDbEntity
  8
0
370
     0
100
AcDbVertex
100
AcDb2dVertex
 10
663.735718
 20
532.643982
 30
0.0
  0
VERTEX
  5
4FB
330
4DA
100
AcDbEntity
  8
0
370
     0
100
AcDbVertex
100
AcDb2dVertex
 10
665.229858
 20
533.726929
 30
0.0
  0
VERTEX
  5
4FC
330
4DA
100
AcDbEntity
  8
0
370
     0
100
AcDbVertex
100
AcDb2dVertex
 10
666.78595
 20
534.756714
 30
0.0
  0
VERTEX
  5
4FD
330
4DA
100
AcDbEntity
  8
0
370
     0
100
AcDbVertex
100
AcDb2dVertex
 10
668.401062
 20
535.731323
 30
0.0
  0
VERTEX
  5
4FE
330
4DA
100
AcDbEntity
  8
0
370
     0
100
AcDbVertex
100
AcDb2dVertex
 10
670.072144
 20
536.648987
 30
0.0
  0
VERTEX
  5
4FF
330
4DA
100
AcDbEntity
  8
0
370
     0
100
AcDbVertex
100
AcDb2dVertex
 10
671.795837
 20
537.507812
 30
0.0
  0
VERTEX
  5
500
330
4DA
100
AcDbEntity
  8
0
370
     0
100
AcDbVertex
100
AcDb2dVertex
 10
673.56897
 20
538.306213
 30
0.0
  0
VERTEX
  5
501
330
4DA
100
AcDbEntity
  8
0
370
     0
100
AcDbVertex
100
AcDb2dVertex
 10
675.388062
 20
539.042725
 30
0.0
  0
VERTEX
  5
502
330
4DA
100
AcDbEntity
  8
0
370
     0
100
AcDbVertex
100
AcDb2dVertex
 10
677.249634
 20
539.71582
 30
0.0
  0
VERTEX
  5
503
330
4DA
100
AcDbEntity
  8
0
370
     0
100
AcDbVertex
100
AcDb2dVertex
 10
679.150085
 20
540.324219
 30
0.0
  0
VERTEX
  5
504
330
4DA
100
AcDbEntity
  8
0
370
     0
100
AcDbVertex
100
AcDb2dVertex
 10
681.085815
 20
540.866821
 30
0.0
  0
VERTEX
  5
505
330
4DA
100
AcDbEntity
  8
0
370
     0
100
AcDbVertex
100
AcDb2dVertex
 10
683.052979
 20
541.342529
 30
0.0
  0
VERTEX
  5
506
330
4DA
100
AcDbEntity
  8
0
370
     0
100
AcDbVertex
100
AcDb2dVertex
 10
685.047852
 20
541.750427
 30
0.0
  0
VERTEX
  5
507
330
4DA
100
AcDbEntity
  8
0
370
     0
100
AcDbVertex
100
AcDb2dVertex
 10
685.319275
 20
541.800293
 30
0.0
  0
SEQEND
  5
508
330
4DA
100
AcDbEntity
  8
0
 62
     7
370
    35
  0
POLYLINE
  5
509
330
1F
100
AcDbEntity
  8
0
 62
     7
370
    35
100
AcDb2dPolyline
 66
     1
 10
0.0
 20
0.0
 30
0.0
  0
VERTEX
  5
50A
330
509
100
AcDbEntity
  8
0
370
     0
100
AcDbVertex
100
AcDb2dVertex
 10
859.74054
 20
484.170197
 30
0.0
  0
VERTEX
  5
50B
330
509
100
AcDbEntity
  8
0
370
     0
100
AcDbVertex
100
AcDb2dVertex
 10
850.803711
 20
482.253204
 30
0.0
  0
VERTEX
  5
50C
330
509
100
AcDbEntity
  8
0
370
     0
100
AcDbVertex
100
AcDb2dVertex
 10
841.888916
 20
480.364075
 30
0.0
  0
VERTEX
  5
50D
330
509
100
AcDbEntity
  8
0
370
     0
100
AcDbVertex
100
AcDb2dVertex
 10
830.144409
 20
477.916199
 30
0.0
  0
VERTEX
  5
50E
330
509
100
AcDbEntity
  8
0
370
     0
100
AcDbVertex
100
AcDb2dVertex
 10
818.535461
 20
475.549042
 30
0.0
  0
VERTEX
  5
50F
330
509
100
AcDbEntity
  8
0
370
     0
100
AcDbVertex
100
AcDb2dVertex
 10
809.801636
 20
473.806366
 30
0.0
  0
VERTEX
  5
510
330
509
100
AcDbEntity
  8
0
370
     0
100
AcDbVertex
100
AcDb2dVertex
 10
801.199463
 20
472.124146
 30
0.0
  0
VERTEX
  5
511
330
509
100
AcDbEntity
  8
0
370
     0
100
AcDbVertex
100
AcDb2dVertex
 10
790.057495
 20
469.997192
 30
0.0
  0
VERTEX
  5
512
330
509
100
AcDbEntity
  8
0
370
     0
100
AcDbVertex
100
AcDb2dVertex
 10
779.078125
 20
467.958801
 30
0.0
  0
VERTEX
  5
513
330
509
100
AcDbEntity
  8
0
370
     0
100
AcDbVertex
100
AcDb2dVertex
 10
775.271179
 20
467.26535
 30
0.0
  0
SEQEND
  5
514
330
509
100
AcDbEntity
  8
0
 62
     7
370
    35
  0
POLYLINE
  5
515
330
1F
100
AcDbEntity
  8
0
 62
     7
370
    35
100
AcDb2dPolyline
 66
     1
 10
0.0
 20
0.0
 30
0.0
  0
VERTEX
  5
516
330
515
100
AcDbEntity
  8
0
370
     0
100
AcDbVertex
100
AcDb2dVertex
 10
853.802185
 20
513.042175
 30
0.0
  0
VERTEX
  5
517
330
515
100
AcDbEntity
  8
0
370
     0
100
AcDbVertex
100
AcDb2dVertex
 10
843.21814
 20
510.706085
 30
0.0
  0
VERTEX
  5
518
330
515
100
AcDbEntity
  8
0
370
     0
100
AcDbVertex
100
AcDb2dVertex
 10
829.479187
 20
507.715942
 30
0.0
  0
VERTEX
  5
519
330
515
100
AcDbEntity
  8
0
370
     0
100
AcDbVertex
100
AcDb2dVertex
 10
816.012939
 20
504.846436
 30
0.0
  0
VERTEX
  5
51A
330
515
100
AcDbEntity
  8
0
370
     0
100
AcDbVertex
100
AcDb2dVertex
 10
804.629456
 20
502.482849
 30
0.0
  0
VERTEX
  5
51B
330
515
100
AcDbEntity
  8
0
370
     0
100
AcDbVertex
100
AcDb2dVertex
 10
793.609009
 20
500.262634
 30
0.0
  0
VERTEX
  5
51C
330
515
100
AcDbEntity
  8
0
370
     0
100
AcDbVertex
100
AcDb2dVertex
 10
785.86145
 20
498.748749
 30
0.0
  0
VERTEX
  5
51D
330
515
100
AcDbEntity
  8
0
370
     0
100
AcDbVertex
100
AcDb2dVertex
 10
778.243286
 20
497.302063
 30
0.0
  0
VERTEX
  5
51E
330
515
100
AcDbEntity
  8
0
370
     0
100
AcDbVertex
100
AcDb2dVertex
 10
770.696472
 20
495.912201
 30
0.0
  0
SEQEND
  5
51F
330
515
100
AcDbEntity
  8
0
 62
     7
370
    35
  0
POLYLINE
  5
520
330
1F
100
AcDbEntity
  8
0
 62
     7
370
    35
100
AcDb2dPolyline
 66
     1
 10
0.0
 20
0.0
 30
0.0
  0
VERTEX
  5
521
330
520
100
AcDbEntity
  8
0
370
     0
100
AcDbVertex
100
AcDb2dVertex
 10
912.526123
 20
543.731934
 30
0.0
  0
VERTEX
  5
522
330
520
100
AcDbEntity
  8
0
370
     0
100
AcDbVertex
100
AcDb2dVertex
 10
912.125854
 20
544.84137
 30
0.0
  0
VERTEX
  5
523
330
520
100
AcDbEntity
  8
0
370
     0
100
AcDbVertex
100
AcDb2dVertex
 10
911.679688
 20
545.939331
 30
0.0
  0
VERTEX
  5
524
330
520
100
AcDbEntity
  8
0
370
     0
100
AcDbVertex
100
AcDb2dVertex
 10
911.188354
 20
547.024536
 30
0.0
  0
VERTEX
  5
525
330
520
100
AcDbEntity
  8
0
370
     0
100
AcDbVertex
100
AcDb2dVertex
 10
910.65271
 20
548.095764
 30
0.0
  0
VERTEX
  5
526
330
520
100
AcDbEntity
  8
0
370
     0
100
AcDbVertex
100
AcDb2dVertex
 10
910.271423
 20
548.801575
 30
0.0
  0
VERTEX
  5
527
330
520
100
AcDbEntity
  8
0
370
     0
100
AcDbVertex
100
AcDb2dVertex
 10
909.871033
 20
549.500305
 30
0.0
  0
VERTEX
  5
528
330
520
100
AcDbEntity
  8
0
370
     0
100
AcDbVertex
100
AcDb2dVertex
 10
909.014343
 20
550.875183
 30
0.0
  0
VERTEX
  5
529
330
520
100
AcDbEntity
  8
0
370
     0
100
AcDbVertex
100
AcDb2dVertex
 10
908.084839
 20
552.217896
 30
0.0
  0
VERTEX
  5
52A
330
520
100
AcDbEntity
  8
0
370
     0
100
AcDbVertex
100
AcDb2dVertex
 10
907.085144
 20
553.526062
 30
0.0
  0
VERTEX
  5
52B
330
520
100
AcDbEntity
  8
0
370
     0
100
AcDbVertex
100
AcDb2dVertex
 10
906.017761
 20
554.797302
 30
0.0
  0
VERTEX
  5
52C
330
520
100
AcDbEntity
  8
0
370
     0
100
AcDbVertex
100
AcDb2dVertex
 10
904.885315
 20
556.029602
 30
0.0
  0
VERTEX
  5
52D
330
520
100
AcDbEntity
  8
0
370
     0
100
AcDbVertex
100
AcDb2dVertex
 10
903.690552
 20
557.220947
 30
0.0
  0
VERTEX
  5
52E
330
520
100
AcDbEntity
  8
0
370
     0
100
AcDbVertex
100
AcDb2dVertex
 10
902.43634
 20
558.369507
 30
0.0
  0
VERTEX
  5
52F
330
520
100
AcDbEntity
  8
0
370
     0
100
AcDbVertex
100
AcDb2dVertex
 10
901.366333
 20
559.277405
 30
0.0
  0
VERTEX
  5
530
330
520
100
AcDbEntity
  8
0
370
     0
100
AcDbVertex
100
AcDb2dVertex
 10
900.259766
 20
560.154602
 30
0.0
  0
VERTEX
  5
531
330
520
100
AcDbEntity
  8
0
370
     0
100
AcDbVertex
100
AcDb2dVertex
 10
899.118286
 20
561.000305
 30
0.0
  0
VERTEX
  5
532
330
520
100
AcDbEntity
  8
0
370
     0
100
AcDbVertex
100
AcDb2dVertex
 10
897.943481
 20
561.81366
 30
0.0
  0
VERTEX
  5
533
330
520
100
AcDbEntity
  8
0
370
     0
100
AcDbVertex
100
AcDb2dVertex
 10
897.142578
 20
562.337646
 30
0.0
  0
VERTEX
  5
534
330
520
100
AcDbEntity
  8
0
370
     0
100
AcDbVertex
100
AcDb2dVertex
 10
896.327942
 20
562.846741
 30
0.0
  0
VERTEX
  5
535
330
520
100
AcDbEntity
  8
0
370
     0
100
AcDbVertex
100
AcDb2dVertex
 10
894.659729
 20
563.81958
 30
0.0
  0
VERTEX
  5
536
330
520
100
AcDbEntity
  8
0
370
     0
100
AcDbVertex
100
AcDb2dVertex
 10
892.942566
 20
564.730713
 30
0.0
  0
VERTEX
  5
537
330
520
100
AcDbEntity
  8
0
370
     0
100
AcDbVertex
100
AcDb2dVertex
 10
891.180298
 20
565.578979
 30
0.0
  0
VERTEX
  5
538
330
520
100
AcDbEntity
  8
0
370
     0
100
AcDbVertex
100
AcDb2dVertex
 10
889.37677
 20
566.363159
 30
0.0
  0
VERTEX
  5
539
330
520
100
AcDbEntity
  8
0
370
     0
100
AcDbVertex
100
AcDb2dVertex
 10
887.535583
 20
567.082275
 30
0.0
  0
VERTEX
  5
53A
330
520
100
AcDbEntity
  8
0
370
     0
100
AcDbVertex
100
AcDb2dVertex
 10
885.660522
 20
567.735352
 30
0.0
  0
VERTEX
  5
53B
330
520
100
AcDbEntity
  8
0
370
     0
100
AcDbVertex
100
AcDb2dVertex
 10
883.755249
 20
568.321594
 30
0.0
  0
VERTEX
  5
53C
330
520
100
AcDbEntity
  8
0
370
     0
100
AcDbVertex
100
AcDb2dVertex
 10
881.733948
 20
568.862549
 30
0.0
  0
VERTEX
  5
53D
330
520
100
AcDbEntity
  8
0
370
     0
100
AcDbVertex
100
AcDb2dVertex
 10
879.687622
 20
569.328979
 30
0.0
  0
VERTEX
  5
53E
330
520
100
AcDbEntity
  8
0
370
     0
100
AcDbVertex
100
AcDb2dVertex
 10
877.620239
 20
569.720337
 30
0.0
  0
VERTEX
  5
53F
330
520
100
AcDbEntity
  8
0
370
     0
100
AcDbVertex
100
AcDb2dVertex
 10
875.535889
 20
570.03595
 30
0.0
  0
VERTEX
  5
540
330
520
100
AcDbEntity
  8
0
370
     0
100
AcDbVertex
100
AcDb2dVertex
 10
873.438721
 20
570.275513
 30
0.0
  0
VERTEX
  5
541
330
520
100
AcDbEntity
  8
0
370
     0
100
AcDbVertex
100
AcDb2dVertex
 10
871.332703
 20
570.438599
 30
0.0
  0
VERTEX
  5
542
330
520
100
AcDbEntity
  8
0
370
     0
100
AcDbVertex
100
AcDb2dVertex
 10
869.221985
 20
570.524902
 30
0.0
  0
VERTEX
  5
543
330
520
100
AcDbEntity
  8
0
370
     0
100
AcDbVertex
100
AcDb2dVertex
 10
867.110596
 20
570.534363
 30
0.0
  0
VERTEX
  5
544
330
520
100
AcDbEntity
  8
0
370
     0
100
AcDbVertex
100
AcDb2dVertex
 10
865.002686
 20
570.466797
 30
0.0
  0
VERTEX
  5
545
330
520
100
AcDbEntity
  8
0
370
     0
100
AcDbVertex
100
AcDb2dVertex
 10
862.902283
 20
570.322144
 30
0.0
  0
VERTEX
  5
546
330
520
100
AcDbEntity
  8
0
370
     0
100
AcDbVertex
100
AcDb2dVertex
 10
860.813477
 20
570.100525
 30
0.0
  0
VERTEX
  5
547
330
520
100
AcDbEntity
  8
0
370
     0
100
AcDbVertex
100
AcDb2dVertex
 10
858.740479
 20
569.802124
 30
0.0
  0
VERTEX
  5
548
330
520
100
AcDbEntity
  8
0
370
     0
100
AcDbVertex
100
AcDb2dVertex
 10
857.70752
 20
569.623474
 30
0.0
  0
SEQEND
  5
549
330
520
100
AcDbEntity
  8
0
 62
     7
370
    35
  0
LINE
  5
54A
330
1F
100
AcDbEntity
  8
0
 62
     7
370
    35
100
AcDbLine
 10
853.802185
 20
513.042175
 30
0.0
 11
857.70752
 21
569.623474
 31
0.0
  0
POLYLINE
  5
54B
330
1F
100
AcDbEntity
  8
0
 62
     7
370
    35
100
AcDb2dPolyline
 66
     1
 10
0.0
 20
0.0
 30
0.0
  0
VERTEX
  5
54C
330
54B
100
AcDbEntity
  8
0
370
     0
100
AcDbVertex
100
AcDb2dVertex
 10
915.013672
 20
545.618286
 30
0.0
  0
VERTEX
  5
54D
330
54B
100
AcDbEntity
  8
0
370
     0
100
AcDbVertex
100
AcDb2dVertex
 10
914.535339
 20
546.930542
 30
0.0
  0
VERTEX
  5
54E
330
54B
100
AcDbEntity
  8
0
370
     0
100
AcDbVertex
100
AcDb2dVertex
 10
913.995056
 20
548.229553
 30
0.0
  0
VERTEX
  5
54F
330
54B
100
AcDbEntity
  8
0
370
     0
100
AcDbVertex
100
AcDb2dVertex
 10
913.393555
 20
549.513672
 30
0.0
  0
VERTEX
  5
550
330
54B
100
AcDbEntity
  8
0
370
     0
100
AcDbVertex
100
AcDb2dVertex
 10
912.731567
 20
550.781067
 30
0.0
  0
VERTEX
  5
551
330
54B
100
AcDbEntity
  8
0
370
     0
100
AcDbVertex
100
AcDb2dVertex
 10
912.010132
 20
552.030029
 30
0.0
  0
VERTEX
  5
552
330
54B
100
AcDbEntity
  8
0
370
     0
100
AcDbVertex
100
AcDb2dVertex
 10
911.230164
 20
553.258789
 30
0.0
  0
VERTEX
  5
553
330
54B
100
AcDbEntity
  8
0
370
     0
100
AcDbVertex
100
AcDb2dVertex
 10
910.392761
 20
554.465759
 30
0.0
  0
VERTEX
  5
554
330
54B
100
AcDbEntity
  8
0
370
     0
100
AcDbVertex
100
AcDb2dVertex
 10
909.878174
 20
555.159119
 30
0.0
  0
VERTEX
  5
555
330
54B
100
AcDbEntity
  8
0
370
     0
100
AcDbVertex
100
AcDb2dVertex
 10
909.344666
 20
555.844116
 30
0.0
  0
VERTEX
  5
556
330
54B
100
AcDbEntity
  8
0
370
     0
100
AcDbVertex
100
AcDb2dVertex
 10
908.221863
 20
557.187988
 30
0.0
  0
VERTEX
  5
557
330
54B
100
AcDbEntity
  8
0
370
     0
100
AcDbVertex
100
AcDb2dVertex
 10
907.026428
 20
558.494812
 30
0.0
  0
VERTEX
  5
558
330
54B
100
AcDbEntity
  8
0
370
     0
100
AcDbVertex
100
AcDb2dVertex
 10
905.760559
 20
559.762207
 30
0.0
  0
VERTEX
  5
559
330
54B
100
AcDbEntity
  8
0
370
     0
100
AcDbVertex
100
AcDb2dVertex
 10
904.426697
 20
560.987793
 30
0.0
  0
VERTEX
  5
55A
330
54B
100
AcDbEntity
  8
0
370
     0
100
AcDbVertex
100
AcDb2dVertex
 10
903.041687
 20
562.157532
 30
0.0
  0
VERTEX
  5
55B
330
54B
100
AcDbEntity
  8
0
370
     0
100
AcDbVertex
100
AcDb2dVertex
 10
901.594971
 20
563.281982
 30
0.0
  0
VERTEX
  5
55C
330
54B
100
AcDbEntity
  8
0
370
     0
100
AcDbVertex
100
AcDb2dVertex
 10
900.089172
 20
564.35907
 30
0.0
  0
VERTEX
  5
55D
330
54B
100
AcDbEntity
  8
0
370
     0
100
AcDbVertex
100
AcDb2dVertex
 10
898.526978
 20
565.386841
 30
0.0
  0
VERTEX
  5
55E
330
54B
100
AcDbEntity
  8
0
370
     0
100
AcDbVertex
100
AcDb2dVertex
 10
896.911316
 20
566.363342
 30
0.0
  0
VERTEX
  5
55F
330
54B
100
AcDbEntity
  8
0
370
     0
100
AcDbVertex
100
AcDb2dVertex
 10
895.244995
 20
567.286865
 30
0.0
  0
VERTEX
  5
560
330
54B
100
AcDbEntity
  8
0
370
     0
100
AcDbVertex
100
AcDb2dVertex
 10
893.53125
 20
568.155701
 30
0.0
  0
VERTEX
  5
561
330
54B
100
AcDbEntity
  8
0
370
     0
100
AcDbVertex
100
AcDb2dVertex
 10
891.773071
 20
568.968262
 30
0.0
  0
VERTEX
  5
562
330
54B
100
AcDbEntity
  8
0
370
     0
100
AcDbVertex
100
AcDb2dVertex
 10
889.973755
 20
569.723022
 30
0.0
  0
VERTEX
  5
563
330
54B
100
AcDbEntity
  8
0
370
     0
100
AcDbVertex
100
AcDb2dVertex
 10
888.136597
 20
570.41864
 30
0.0
  0
VERTEX
  5
564
330
54B
100
AcDbEntity
  8
0
370
     0
100
AcDbVertex
100
AcDb2dVertex
 10
886.229797
 20
571.065063
 30
0.0
  0
VERTEX
  5
565
330
54B
100
AcDbEntity
  8
0
370
     0
100
AcDbVertex
100
AcDb2dVertex
 10
884.290833
 20
571.647522
 30
0.0
  0
VERTEX
  5
566
330
54B
100
AcDbEntity
  8
0
370
     0
100
AcDbVertex
100
AcDb2dVertex
 10
882.323425
 20
572.164917
 30
0.0
  0
VERTEX
  5
567
330
54B
100
AcDbEntity
  8
0
370
     0
100
AcDbVertex
100
AcDb2dVertex
 10
880.331238
 20
572.616333
 30
0.0
  0
VERTEX
  5
568
330
54B
100
AcDbEntity
  8
0
370
     0
100
AcDbVertex
100
AcDb2dVertex
 10
878.318115
 20
573.000916
 30
0.0
  0
VERTEX
  5
569
330
54B
100
AcDbEntity
  8
0
370
     0
100
AcDbVertex
100
AcDb2dVertex
 10
876.287842
 20
573.317871
 30
0.0
  0
VERTEX
  5
56A
330
54B
100
AcDbEntity
  8
0
370
     0
100
AcDbVertex
100
AcDb2dVertex
 10
874.244202
 20
573.56665
 30
0.0
  0
VERTEX
  5
56B
330
54B
100
AcDbEntity
  8
0
370
     0
100
AcDbVertex
100
AcDb2dVertex
 10
872.191162
 20
573.746765
 30
0.0
  0
VERTEX
  5
56C
330
54B
100
AcDbEntity
  8
0
370
     0
100
AcDbVertex
100
AcDb2dVertex
 10
870.132446
 20
573.85791
 30
0.0
  0
VERTEX
  5
56D
330
54B
100
AcDbEntity
  8
0
370
     0
100
AcDbVertex
100
AcDb2dVertex
 10
868.072021
 20
573.899902
 30
0.0
  0
VERTEX
  5
56E
330
54B
100
AcDbEntity
  8
0
370
     0
100
AcDbVertex
100
AcDb2dVertex
 10
866.013855
 20
573.872559
 30
0.0
  0
VERTEX
  5
56F
330
54B
100
AcDbEntity
  8
0
370
     0
100
AcDbVertex
100
AcDb2dVertex
 10
863.96167
 20
573.776001
 30
0.0
  0
VERTEX
  5
570
330
54B
100
AcDbEntity
  8
0
370
     0
100
AcDbVertex
100
AcDb2dVertex
 10
861.919495
 20
573.610413
 30
0.0
  0
VERTEX
  5
571
330
54B
100
AcDbEntity
  8
0
370
     0
100
AcDbVertex
100
AcDb2dVertex
 10
859.891113
 20
573.37616
 30
0.0
  0
VERTEX
  5
572
330
54B
100
AcDbEntity
  8
0
370
     0
100
AcDbVertex
100
AcDb2dVertex
 10
857.880432
 20
573.073547
 30
0.0
  0
VERTEX
  5
573
330
54B
100
AcDbEntity
  8
0
370
     0
100
AcDbVertex
100
AcDb2dVertex
 10
857.153381
 20
572.946533
 30
0.0
  0
SEQEND
  5
574
330
54B
100
AcDbEntity
  8
0
 62
     7
370
    35
  0
ELLIPSE
  5
575
330
1F
100
AcDbEntity
  8
0
 62
     7
370
    35
100
AcDbEllipse
 10
857.064575
 20
571.357849
 30
0.0
 11
0.44586181640625
 21
-2.459930419921875
 31
0.0
210
0.0
220
0.0
230
1.0
 40
0.188782
 41
0.7546576666638838
 42
2.238187692300427
  0
POLYLINE
  5
576
330
1F
100
AcDbEntity
  8
0
 62
     7
370
    35
100
AcDb2dPolyline
 66
     1
 10
0.0
 20
0.0
 30
0.0
  0
VERTEX
  5
577
330
576
100
AcDbEntity
  8
0
370
     0
100
AcDbVertex
100
AcDb2dVertex
 10
770.696472
 20
495.912201
 30
0.0
  0
VERTEX
  5
578
330
576
100
AcDbEntity
  8
0
370
     0
100
AcDbVertex
100
AcDb2dVertex
 10
762.06189
 20
494.375824
 30
0.0
  0
VERTEX
  5
579
330
576
100
AcDbEntity
  8
0
370
     0
100
AcDbVertex
100
AcDb2dVertex
 10
753.323853
 20
492.878113
 30
0.0
  0
VERTEX
  5
57A
330
576
100
AcDbEntity
  8
0
370
     0
100
AcDbVertex
100
AcDb2dVertex
 10
744.400085
 20
491.403778
 30
0.0
  0
VERTEX
  5
57B
330
576
100
AcDbEntity
  8
0
370
     0
100
AcDbVertex
100
AcDb2dVertex
 10
733.270752
 20
489.634186
 30
0.0
  0
VERTEX
  5
57C
330
576
100
AcDbEntity
  8
0
370
     0
100
AcDbVertex
100
AcDb2dVertex
 10
721.788147
 20
487.875793
 30
0.0
  0
VERTEX
  5
57D
330
576
100
AcDbEntity
  8
0
370
     0
100
AcDbVertex
100
AcDb2dVertex
 10
713.391663
 20
486.625275
 30
0.0
  0
VERTEX
  5
57E
330
576
100
AcDbEntity
  8
0
370
     0
100
AcDbVertex
100
AcDb2dVertex
 10
704.881348
 20
485.38269
 30
0.0
  0
VERTEX
  5
57F
330
576
100
AcDbEntity
  8
0
370
     0
100
AcDbVertex
100
AcDb2dVertex
 10
696.295471
 20
484.150085
 30
0.0
  0
VERTEX
  5
580
330
576
100
AcDbEntity
  8
0
370
     0
100
AcDbVertex
100
AcDb2dVertex
 10
687.668701
 20
482.92926
 30
0.0
  0
SEQEND
  5
581
330
576
100
AcDbEntity
  8
0
 62
     7
370
    35
  0
LINE
  5
582
330
1F
100
AcDbEntity
  8
0
 62
     7
370
    35
100
AcDbLine
 10
857.70752
 20
569.623474
 30
0.0
 11
685.873474
 21
538.477234
 31
0.0
  0
LINE
  5
583
330
1F
100
AcDbEntity
  8
0
 62
     7
370
    35
100
AcDbLine
 10
857.153381
 20
572.946533
 30
0.0
 11
685.319275
 21
541.800293
 31
0.0
  0
POLYLINE
  5
584
330
1F
100
AcDbEntity
  8
0
 62
     7
370
    35
100
AcDb2dPolyline
 66
     1
 10
0.0
 20
0.0
 30
0.0
  0
VERTEX
  5
585
330
584
100
AcDbEntity
  8
0
370
     0
100
AcDbVertex
100
AcDb2dVertex
 10
775.271179
 20
467.26535
 30
0.0
  0
VERTEX
  5
586
330
584
100
AcDbEntity
  8
0
370
     0
100
AcDbVertex
100
AcDb2dVertex
 10
768.706665
 20
466.085663
 30
0.0
  0
VERTEX
  5
587
330
584
100
AcDbEntity
  8
0
370
     0
100
AcDbVertex
100
AcDb2dVertex
 10
762.114441
 20
464.9216
 30
0.0
  0
VERTEX
  5
588
330
584
100
AcDbEntity
  8
0
370
     0
100
AcDbVertex
100
AcDb2dVertex
 10
755.496277
 20
463.773834
 30
0.0
  0
VERTEX
  5
589
330
584
100
AcDbEntity
  8
0
370
     0
100
AcDbVertex
100
AcDb2dVertex
 10
748.808105
 20
462.635254
 30
0.0
  0
VERTEX
  5
58A
330
584
100
AcDbEntity
  8
0
370
     0
100
AcDbVertex
100
AcDb2dVertex
 10
738.763672
 20
460.965271
 30
0.0
  0
VERTEX
  5
58B
330
584
100
AcDbEntity
  8
0
370
     0
100
AcDbVertex
100
AcDb2dVertex
 10
728.54248
 20
459.313446
 30
0.0
  0
VERTEX
  5
58C
330
584
100
AcDbEntity
  8
0
370
     0
100
AcDbVertex
100
AcDb2dVertex
 10
720.18811
 20
457.996521
 30
0.0
  0
VERTEX
  5
58D
330
584
100
AcDbEntity
  8
0
370
     0
100
AcDbVertex
100
AcDb2dVertex
 10
711.759155
 20
456.695465
 30
0.0
  0
VERTEX
  5
58E
330
584
100
AcDbEntity
  8
0
370
     0
100
AcDbVertex
100
AcDb2dVertex
 10
701.488403
 20
455.143311
 30
0.0
  0
VERTEX
  5
58F
330
584
100
AcDbEntity
  8
0
370
     0
100
AcDbVertex
100
AcDb2dVertex
 10
691.181763
 20
453.617615
 30
0.0
  0
SEQEND
  5
590
330
584
100
AcDbEntity
  8
0
 62
     7
370
    35
  0
ELLIPSE
  5
591
330
1F
100
AcDbEntity
  8
0
 62
     7
370
    35
100
AcDbEllipse
 10
693.455261
 20
467.319641
 30
0.0
 11
3.133056640625
 21
-22.28079223632812
 31
0.0
210
0.0
220
0.0
230
1.0
 40
0.228742
 41
3.904524085122644
 42
5.342179049562485
  0
POLYLINE
  5
592
330
1F
100
AcDbEntity
  8
0
 62
     7
370
    35
100
AcDb2dPolyline
 66
     1
 10
0.0
 20
0.0
 30
0.0
  0
VERTEX
  5
593
330
592
100
AcDbEntity
  8
0
370
     0
100
AcDbVertex
100
AcDb2dVertex
 10
691.181763
 20
453.617645
 30
0.0
  0
VERTEX
  5
594
330
592
100
AcDbEntity
  8
0
370
     0
100
AcDbVertex
100
AcDb2dVertex
 10
689.905151
 20
453.391754
 30
0.0
  0
VERTEX
  5
595
330
592
100
AcDbEntity
  8
0
370
     0
100
AcDbVertex
100
AcDb2dVertex
 10
688.655457
 20
453.092163
 30
0.0
  0
VERTEX
  5
596
330
592
100
AcDbEntity
  8
0
370
     0
100
AcDbVertex
100
AcDb2dVertex
 10
688.039978
 20
452.914093
 30
0.0
  0
VERTEX
  5
597
330
592
100
AcDbEntity
  8
0
370
     0
100
AcDbVertex
100
AcDb2dVertex
 10
687.433777
 20
452.717712
 30
0.0
  0
VERTEX
  5
598
330
592
100
AcDbEntity
  8
0
370
     0
100
AcDbVertex
100
AcDb2dVertex
 10
686.842773
 20
452.505066
 30
0.0
  0
VERTEX
  5
599
330
592
100
AcDbEntity
  8
0
370
     0
100
AcDbVertex
100
AcDb2dVertex
 10
686.262451
 20
452.274719
 30
0.0
  0
VERTEX
  5
59A
330
592
100
AcDbEntity
  8
0
370
     0
100
AcDbVertex
100
AcDb2dVertex
 10
685.354187
 20
451.86792
 30
0.0
  0
VERTEX
  5
59B
330
592
100
AcDbEntity
  8
0
370
     0
100
AcDbVertex
100
AcDb2dVertex
 10
684.479004
 20
451.416779
 30
0.0
  0
VERTEX
  5
59C
330
592
100
AcDbEntity
  8
0
370
     0
100
AcDbVertex
100
AcDb2dVertex
 10
683.640198
 20
450.922363
 30
0.0
  0
VERTEX
  5
59D
330
592
100
AcDbEntity
  8
0
370
     0
100
AcDbVertex
100
AcDb2dVertex
 10
682.841003
 20
450.385986
 30
0.0
  0
VERTEX
  5
59E
330
592
100
AcDbEntity
  8
0
370
     0
100
AcDbVertex
100
AcDb2dVertex
 10
682.084717
 20
449.809082
 30
0.0
  0
VERTEX
  5
59F
330
592
100
AcDbEntity
  8
0
370
     0
100
AcDbVertex
100
AcDb2dVertex
 10
681.340027
 20
449.161438
 30
0.0
  0
VERTEX
  5
5A0
330
592
100
AcDbEntity
  8
0
370
     0
100
AcDbVertex
100
AcDb2dVertex
 10
680.649658
 20
448.473267
 30
0.0
  0
VERTEX
  5
5A1
330
592
100
AcDbEntity
  8
0
370
     0
100
AcDbVertex
100
AcDb2dVertex
 10
680.016968
 20
447.74707
 30
0.0
  0
VERTEX
  5
5A2
330
592
100
AcDbEntity
  8
0
370
     0
100
AcDbVertex
100
AcDb2dVertex
 10
679.445068
 20
446.985626
 30
0.0
  0
VERTEX
  5
5A3
330
592
100
AcDbEntity
  8
0
370
     0
100
AcDbVertex
100
AcDb2dVertex
 10
678.936829
 20
446.191956
 30
0.0
  0
VERTEX
  5
5A4
330
592
100
AcDbEntity
  8
0
370
     0
100
AcDbVertex
100
AcDb2dVertex
 10
678.494629
 20
445.369232
 30
0.0
  0
VERTEX
  5
5A5
330
592
100
AcDbEntity
  8
0
370
     0
100
AcDbVertex
100
AcDb2dVertex
 10
678.12085
 20
444.520874
 30
0.0
  0
VERTEX
  5
5A6
330
592
100
AcDbEntity
  8
0
370
     0
100
AcDbVertex
100
AcDb2dVertex
 10
677.825562
 20
443.677917
 30
0.0
  0
VERTEX
  5
5A7
330
592
100
AcDbEntity
  8
0
370
     0
100
AcDbVertex
100
AcDb2dVertex
 10
677.597412
 20
442.81781
 30
0.0
  0
VERTEX
  5
5A8
330
592
100
AcDbEntity
  8
0
370
     0
100
AcDbVertex
100
AcDb2dVertex
 10
677.437317
 20
441.944031
 30
0.0
  0
VERTEX
  5
5A9
330
592
100
AcDbEntity
  8
0
370
     0
100
AcDbVertex
100
AcDb2dVertex
 10
677.345886
 20
441.06015
 30
0.0
  0
VERTEX
  5
5AA
330
592
100
AcDbEntity
  8
0
370
     0
100
AcDbVertex
100
AcDb2dVertex
 10
677.323242
 20
440.169739
 30
0.0
  0
VERTEX
  5
5AB
330
592
100
AcDbEntity
  8
0
370
     0
100
AcDbVertex
100
AcDb2dVertex
 10
677.369202
 20
439.276428
 30
0.0
  0
VERTEX
  5
5AC
330
592
100
AcDbEntity
  8
0
370
     0
100
AcDbVertex
100
AcDb2dVertex
 10
677.483276
 20
438.383698
 30
0.0
  0
VERTEX
  5
5AD
330
592
100
AcDbEntity
  8
0
370
     0
100
AcDbVertex
100
AcDb2dVertex
 10
677.664551
 20
437.495087
 30
0.0
  0
VERTEX
  5
5AE
330
592
100
AcDbEntity
  8
0
370
     0
100
AcDbVertex
100
AcDb2dVertex
 10
677.911926
 20
436.614014
 30
0.0
  0
VERTEX
  5
5AF
330
592
100
AcDbEntity
  8
0
370
     0
100
AcDbVertex
100
AcDb2dVertex
 10
677.932373
 20
436.550629
 30
0.0
  0
SEQEND
  5
5B0
330
592
100
AcDbEntity
  8
0
 62
     7
370
    35
  0
ARC
  5
5B1
330
1F
100
AcDbEntity
  8
0
 62
     7
370
    35
100
AcDbCircle
 10
666.333923
 20
445.858398
 30
0.0
 40
7.759001359631205
100
AcDbArc
 50
183.799984
 51
198.31568
  0
ARC
  5
5B2
330
1F
100
AcDbEntity
  8
0
 62
     7
370
    35
100
AcDbCircle
 10
673.152283
 20
469.684113
 30
0.0
 40
33.47633358040027
100
AcDbArc
 50
272.382074
 51
278.209325
  0
POLYLINE
  5
5B3
330
1F
100
AcDbEntity
  8
0
 62
     7
370
    35
100
AcDb2dPolyline
 66
     1
 10
0.0
 20
0.0
 30
0.0
  0
VERTEX
  5
5B4
330
5B3
100
AcDbEntity
  8
0
370
     0
100
AcDbVertex
100
AcDb2dVertex
 10
677.932373
 20
436.550629
 30
0.0
  0
VERTEX
  5
5B5
330
5B3
100
AcDbEntity
  8
0
370
     0
100
AcDbVertex
100
AcDb2dVertex
 10
681.902771
 20
424.389038
 30
0.0
  0
VERTEX
  5
5B6
330
5B3
100
AcDbEntity
  8
0
370
     0
100
AcDbVertex
100
AcDb2dVertex
 10
685.885803
 20
412.318756
 30
0.0
  0
VERTEX
  5
5B7
330
5B3
100
AcDbEntity
  8
0
370
     0
100
AcDbVertex
100
AcDb2dVertex
 10
689.297058
 20
402.111908
 30
0.0
  0
SEQEND
  5
5B8
330
5B3
100
AcDbEntity
  8
0
 62
     7
370
    35
  0
ARC
  5
5B9
330
1F
100
AcDbEntity
  8
0
 62
     7
370
    35
100
AcDbCircle
 10
694.512512
 20
367.166565
 30
0.0
 40
9.168958853777577
100
AcDbArc
 50
185.005745
 51
199.048436
  0
ELLIPSE
  5
5BA
330
1F
100
AcDbEntity
  8
0
 62
     7
370
    35
100
AcDbEllipse
 10
897.499573
 20
452.479156
 30
0.0
 11
44.74584960937501
 21
-2.382293701171875
 31
0.0
210
0.0
220
0.0
230
1.0
 40
0.771057
 41
6.16084226720163
 42
6.582750282128793
  0
POLYLINE
  5
5BB
330
1F
100
AcDbEntity
  8
0
 62
     7
370
    35
100
AcDb2dPolyline
 66
     1
 10
0.0
 20
0.0
 30
0.0
  0
VERTEX
  5
5BC
330
5BB
100
AcDbEntity
  8
0
370
     0
100
AcDbVertex
100
AcDb2dVertex
 10
943.282288
 20
462.270935
 30
0.0
  0
VERTEX
  5
5BD
330
5BB
100
AcDbEntity
  8
0
370
     0
100
AcDbVertex
100
AcDb2dVertex
 10
943.468079
 20
461.70517
 30
0.0
  0
VERTEX
  5
5BE
330
5BB
100
AcDbEntity
  8
0
370
     0
100
AcDbVertex
100
AcDb2dVertex
 10
943.878479
 20
460.295685
 30
0.0
  0
VERTEX
  5
5BF
330
5BB
100
AcDbEntity
  8
0
370
     0
100
AcDbVertex
100
AcDb2dVertex
 10
944.217346
 20
458.876495
 30
0.0
  0
VERTEX
  5
5C0
330
5BB
100
AcDbEntity
  8
0
370
     0
100
AcDbVertex
100
AcDb2dVertex
 10
944.484253
 20
457.449738
 30
0.0
  0
VERTEX
  5
5C1
330
5BB
100
AcDbEntity
  8
0
370
     0
100
AcDbVertex
100
AcDb2dVertex
 10
944.678833
 20
456.01767
 30
0.0
  0
VERTEX
  5
5C2
330
5BB
100
AcDbEntity
  8
0
370
     0
100
AcDbVertex
100
AcDb2dVertex
 10
944.800598
 20
454.582489
 30
0.0
  0
VERTEX
  5
5C3
330
5BB
100
AcDbEntity
  8
0
370
     0
100
AcDbVertex
100
AcDb2dVertex
 10
944.849487
 20
453.146393
 30
0.0
  0
VERTEX
  5
5C4
330
5BB
100
AcDbEntity
  8
0
370
     0
100
AcDbVertex
100
AcDb2dVertex
 10
944.825439
 20
451.711578
 30
0.0
  0
VERTEX
  5
5C5
330
5BB
100
AcDbEntity
  8
0
370
     0
100
AcDbVertex
100
AcDb2dVertex
 10
944.728516
 20
450.280273
 30
0.0
  0
VERTEX
  5
5C6
330
5BB
100
AcDbEntity
  8
0
370
     0
100
AcDbVertex
100
AcDb2dVertex
 10
944.558716
 20
448.854675
 30
0.0
  0
VERTEX
  5
5C7
330
5BB
100
AcDbEntity
  8
0
370
     0
100
AcDbVertex
100
AcDb2dVertex
 10
944.316406
 20
447.436951
 30
0.0
  0
VERTEX
  5
5C8
330
5BB
100
AcDbEntity
  8
0
370
     0
100
AcDbVertex
100
AcDb2dVertex
 10
944.001953
 20
446.029297
 30
0.0
  0
VERTEX
  5
5C9
330
5BB
100
AcDbEntity
  8
0
370
     0
100
AcDbVertex
100
AcDb2dVertex
 10
943.615784
 20
444.63385
 30
0.0
  0
VERTEX
  5
5CA
330
5BB
100
AcDbEntity
  8
0
370
     0
100
AcDbVertex
100
AcDb2dVertex
 10
943.158569
 20
443.252808
 30
0.0
  0
VERTEX
  5
5CB
330
5BB
100
AcDbEntity
  8
0
370
     0
100
AcDbVertex
100
AcDb2dVertex
 10
942.738708
 20
442.15152
 30
0.0
  0
VERTEX
  5
5CC
330
5BB
100
AcDbEntity
  8
0
370
     0
100
AcDbVertex
100
AcDb2dVertex
 10
942.27356
 20
441.062042
 30
0.0
  0
VERTEX
  5
5CD
330
5BB
100
AcDbEntity
  8
0
370
     0
100
AcDbVertex
100
AcDb2dVertex
 10
941.76355
 20
439.985474
 30
0.0
  0
VERTEX
  5
5CE
330
5BB
100
AcDbEntity
  8
0
370
     0
100
AcDbVertex
100
AcDb2dVertex
 10
941.209167
 20
438.922913
 30
0.0
  0
VERTEX
  5
5CF
330
5BB
100
AcDbEntity
  8
0
370
     0
100
AcDbVertex
100
AcDb2dVertex
 10
940.81604
 20
438.224213
 30
0.0
  0
VERTEX
  5
5D0
330
5BB
100
AcDbEntity
  8
0
370
     0
100
AcDbVertex
100
AcDb2dVertex
 10
940.403748
 20
437.532532
 30
0.0
  0
VERTEX
  5
5D1
330
5BB
100
AcDbEntity
  8
0
370
     0
100
AcDbVertex
100
AcDb2dVertex
 10
939.970581
 20
436.845337
 30
0.0
  0
VERTEX
  5
5D2
330
5BB
100
AcDbEntity
  8
0
370
     0
100
AcDbVertex
100
AcDb2dVertex
 10
939.518433
 20
436.165833
 30
0.0
  0
VERTEX
  5
5D3
330
5BB
100
AcDbEntity
  8
0
370
     0
100
AcDbVertex
100
AcDb2dVertex
 10
938.560059
 20
434.833618
 30
0.0
  0
VERTEX
  5
5D4
330
5BB
100
AcDbEntity
  8
0
370
     0
100
AcDbVertex
100
AcDb2dVertex
 10
937.528503
 20
433.535461
 30
0.0
  0
VERTEX
  5
5D5
330
5BB
100
AcDbEntity
  8
0
370
     0
100
AcDbVertex
100
AcDb2dVertex
 10
936.42572
 20
432.273682
 30
0.0
  0
VERTEX
  5
5D6
330
5BB
100
AcDbEntity
  8
0
370
     0
100
AcDbVertex
100
AcDb2dVertex
 10
935.25354
 20
431.050568
 30
0.0
  0
VERTEX
  5
5D7
330
5BB
100
AcDbEntity
  8
0
370
     0
100
AcDbVertex
100
AcDb2dVertex
 10
934.400696
 20
430.22583
 30
0.0
  0
VERTEX
  5
5D8
330
5BB
100
AcDbEntity
  8
0
370
     0
100
AcDbVertex
100
AcDb2dVertex
 10
933.516174
 20
429.421448
 30
0.0
  0
VERTEX
  5
5D9
330
5BB
100
AcDbEntity
  8
0
370
     0
100
AcDbVertex
100
AcDb2dVertex
 10
932.60083
 20
428.638123
 30
0.0
  0
VERTEX
  5
5DA
330
5BB
100
AcDbEntity
  8
0
370
     0
100
AcDbVertex
100
AcDb2dVertex
 10
931.89447
 20
428.06485
 30
0.0
  0
VERTEX
  5
5DB
330
5BB
100
AcDbEntity
  8
0
370
     0
100
AcDbVertex
100
AcDb2dVertex
 10
931.171631
 20
427.504089
 30
0.0
  0
VERTEX
  5
5DC
330
5BB
100
AcDbEntity
  8
0
370
     0
100
AcDbVertex
100
AcDb2dVertex
 10
929.67749
 20
426.421143
 30
0.0
  0
VERTEX
  5
5DD
330
5BB
100
AcDbEntity
  8
0
370
     0
100
AcDbVertex
100
AcDb2dVertex
 10
928.121399
 20
425.391357
 30
0.0
  0
VERTEX
  5
5DE
330
5BB
100
AcDbEntity
  8
0
370
     0
100
AcDbVertex
100
AcDb2dVertex
 10
926.506287
 20
424.416718
 30
0.0
  0
VERTEX
  5
5DF
330
5BB
100
AcDbEntity
  8
0
370
     0
100
AcDbVertex
100
AcDb2dVertex
 10
924.835205
 20
423.499115
 30
0.0
  0
VERTEX
  5
5E0
330
5BB
100
AcDbEntity
  8
0
370
     0
100
AcDbVertex
100
AcDb2dVertex
 10
923.111511
 20
422.640259
 30
0.0
  0
VERTEX
  5
5E1
330
5BB
100
AcDbEntity
  8
0
370
     0
100
AcDbVertex
100
AcDb2dVertex
 10
921.338379
 20
421.841827
 30
0.0
  0
VERTEX
  5
5E2
330
5BB
100
AcDbEntity
  8
0
370
     0
100
AcDbVertex
100
AcDb2dVertex
 10
919.519287
 20
421.105347
 30
0.0
  0
VERTEX
  5
5E3
330
5BB
100
AcDbEntity
  8
0
370
     0
100
AcDbVertex
100
AcDb2dVertex
 10
917.657715
 20
420.432251
 30
0.0
  0
VERTEX
  5
5E4
330
5BB
100
AcDbEntity
  8
0
370
     0
100
AcDbVertex
100
AcDb2dVertex
 10
915.757263
 20
419.823822
 30
0.0
  0
VERTEX
  5
5E5
330
5BB
100
AcDbEntity
  8
0
370
     0
100
AcDbVertex
100
AcDb2dVertex
 10
913.821533
 20
419.28125
 30
0.0
  0
VERTEX
  5
5E6
330
5BB
100
AcDbEntity
  8
0
370
     0
100
AcDbVertex
100
AcDb2dVertex
 10
911.85437
 20
418.805542
 30
0.0
  0
VERTEX
  5
5E7
330
5BB
100
AcDbEntity
  8
0
370
     0
100
AcDbVertex
100
AcDb2dVertex
 10
909.859497
 20
418.397644
 30
0.0
  0
VERTEX
  5
5E8
330
5BB
100
AcDbEntity
  8
0
370
     0
100
AcDbVertex
100
AcDb2dVertex
 10
909.588074
 20
418.347778
 30
0.0
  0
SEQEND
  5
5E9
330
5BB
100
AcDbEntity
  8
0
 62
     7
370
    35
  0
ELLIPSE
  5
5EA
330
1F
100
AcDbEntity
  8
0
 62
     7
370
    35
100
AcDbEllipse
 10
869.296509
 20
537.398254
 30
0.0
 11
57.41046142578125
 21
-3.20819091796875
 31
0.0
210
0.0
220
0.0
230
1.0
 40
0.771316
 41
0.301147285609203
 42
1.871943612404099
  0
LINE
  5
5EB
330
1F
100
AcDbEntity
  8
0
 62
     7
370
    35
100
AcDbLine
 10
953.168396
 20
463.996338
 30
0.0
 11
924.8573
 21
547.469055
 31
0.0
  0
ELLIPSE
  5
5EC
330
1F
100
AcDbEntity
  8
0
 62
     7
370
    35
100
AcDbEllipse
 10
897.607666
 20
453.925537
 30
0.0
 11
57.41046142578125
 21
-3.20819091796875
 31
0.0
210
0.0
220
0.0
230
1.0
 40
0.771316
 41
5.013536265993893
 42
6.584332592788789
  0
LINE
  5
5ED
330
1F
100
AcDbEntity
  8
0
 62
     7
370
    35
100
AcDbLine
 10
740.27655
 20
379.50946
 30
0.0
 11
912.273315
 21
410.68515
 31
0.0
  0
ELLIPSE
  5
5EE
330
1F
100
AcDbEntity
  8
0
 62
     7
370
    35
100
AcDbEllipse
 10
725.61084
 20
422.749817
 30
0.0
 11
57.41046142578125
 21
-3.20819091796875
 31
0.0
210
0.0
220
0.0
230
1.0
 40
0.771316
 41
3.442739939198995
 42
5.013536265993892
  0
LINE
  5
5EF
330
1F
100
AcDbEntity
  8
0
 62
     7
370
    35
100
AcDbLine
 10
641.738953
 20
496.151733
 30
0.0
 11
670.050049
 21
412.679016
 31
0.0
  0
ELLIPSE
  5
5F0
330
1F
100
AcDbEntity
  8
0
 62
     7
370
    35
100
AcDbEllipse
 10
697.299683
 20
506.222534
 30
0.0
 11
57.41046142578125
 21
-3.20819091796875
 31
0.0
210
0.0
220
0.0
230
1.0
 40
0.771316
 41
1.871943612404097
 42
3.442739939198995
  0
LINE
  5
5F1
330
1F
100
AcDbEntity
  8
0
 62
     7
370
    35
100
AcDbLine
 10
854.630798
 20
580.638611
 30
0.0
 11
682.634033
 21
549.462891
 31
0.0
  0
ELLIPSE
  5
5F2
330
1F
100
AcDbEntity
  8
0
 62
     7
370
    35
100
AcDbEllipse
 10
793.573242
 20
410.633942
 30
0.0
 11
22.4649658203125
 21
-1.25537109375
 31
0.0
210
0.0
220
0.0
230
1.0
 40
0.771316
 41
5.826381905952148
 42
8.155128919583687
  0
ELLIPSE
  5
5F3
330
1F
100
AcDbEntity
  8
0
 62
     7
370
    35
100
AcDbEllipse
 10
793.573242
 20
410.633942
 30
0.0
 11
22.4649658203125
 21
-1.25537109375
 31
0.0
210
0.0
220
0.0
230
1.0
 40
0.771316
 41
1.871943612400957
 42
4.20069062806939
  0
POLYLINE
  5
5F4
330
1F
100
AcDbEntity
  8
0
 62
     7
370
    35
100
AcDb2dPolyline
 66
     1
 10
0.0
 20
0.0
 30
0.0
  0
VERTEX
  5
5F5
330
5F4
100
AcDbEntity
  8
0
370
     0
100
AcDbVertex
100
AcDb2dVertex
 10
732.926086
 20
338.442749
 30
0.0
  0
VERTEX
  5
5F6
330
5F4
100
AcDbEntity
  8
0
370
     0
100
AcDbVertex
100
AcDb2dVertex
 10
751.338989
 20
341.210541
 30
0.0
  0
VERTEX
  5
5F7
330
5F4
100
AcDbEntity
  8
0
370
     0
100
AcDbVertex
100
AcDb2dVertex
 10
765.849182
 20
343.446899
 30
0.0
  0
VERTEX
  5
5F8
330
5F4
100
AcDbEntity
  8
0
370
     0
100
AcDbVertex
100
AcDb2dVertex
 10
776.49115
 20
345.12912
 30
0.0
  0
VERTEX
  5
5F9
330
5F4
100
AcDbEntity
  8
0
370
     0
100
AcDbVertex
100
AcDb2dVertex
 10
786.859558
 20
346.81134
 30
0.0
  0
VERTEX
  5
5FA
330
5F4
100
AcDbEntity
  8
0
370
     0
100
AcDbVertex
100
AcDb2dVertex
 10
796.945679
 20
348.496704
 30
0.0
  0
VERTEX
  5
5FB
330
5F4
100
AcDbEntity
  8
0
370
     0
100
AcDbVertex
100
AcDb2dVertex
 10
806.800903
 20
350.196899
 30
0.0
  0
VERTEX
  5
5FC
330
5F4
100
AcDbEntity
  8
0
370
     0
100
AcDbVertex
100
AcDb2dVertex
 10
816.526367
 20
351.930969
 30
0.0
  0
SEQEND
  5
5FD
330
5F4
100
AcDbEntity
  8
0
 62
     7
370
    35
  0
POLYLINE
  5
5FE
330
1F
100
AcDbEntity
  8
0
 62
     7
370
    35
100
AcDb2dPolyline
 66
     1
 10
0.0
 20
0.0
 30
0.0
  0
VERTEX
  5
5FF
330
5FE
100
AcDbEntity
  8
0
370
     0
100
AcDbVertex
100
AcDb2dVertex
 10
816.526367
 20
351.930969
 30
0.0
  0
VERTEX
  5
600
330
5FE
100
AcDbEntity
  8
0
370
     0
100
AcDbVertex
100
AcDb2dVertex
 10
826.255249
 20
353.723114
 30
0.0
  0
VERTEX
  5
601
330
5FE
100
AcDbEntity
  8
0
370
     0
100
AcDbVertex
100
AcDb2dVertex
 10
836.125488
 20
355.598297
 30
0.0
  0
VERTEX
  5
602
330
5FE
100
AcDbEntity
  8
0
370
     0
100
AcDbVertex
100
AcDb2dVertex
 10
846.238281
 20
357.574066
 30
0.0
  0
VERTEX
  5
603
330
5FE
100
AcDbEntity
  8
0
370
     0
100
AcDbVertex
100
AcDb2dVertex
 10
856.642883
 20
359.657013
 30
0.0
  0
VERTEX
  5
604
330
5FE
100
AcDbEntity
  8
0
370
     0
100
AcDbVertex
100
AcDb2dVertex
 10
870.947327
 20
362.58844
 30
0.0
  0
VERTEX
  5
605
330
5FE
100
AcDbEntity
  8
0
370
     0
100
AcDbVertex
100
AcDb2dVertex
 10
885.610718
 20
365.655914
 30
0.0
  0
VERTEX
  5
606
330
5FE
100
AcDbEntity
  8
0
370
     0
100
AcDbVertex
100
AcDb2dVertex
 10
900.452026
 20
368.807678
 30
0.0
  0
SEQEND
  5
607
330
5FE
100
AcDbEntity
  8
0
 62
     7
370
    35
  0
LINE
  5
608
330
1F
100
AcDbEntity
  8
0
 62
     7
370
    35
100
AcDbLine
 10
737.219299
 20
388.072815
 30
0.0
 11
909.053406
 21
419.219055
 31
0.0
  0
POLYLINE
  5
609
330
1F
100
AcDbEntity
  8
0
 62
     7
370
    35
100
AcDb2dPolyline
 66
     1
 10
0.0
 20
0.0
 30
0.0
  0
VERTEX
  5
60A
330
609
100
AcDbEntity
  8
0
370
     0
100
AcDbVertex
100
AcDb2dVertex
 10
900.452026
 20
368.807678
 30
0.0
  0
VERTEX
  5
60B
330
609
100
AcDbEntity
  8
0
370
     0
100
AcDbVertex
100
AcDb2dVertex
 10
902.126831
 20
369.197937
 30
0.0
  0
VERTEX
  5
60C
330
609
100
AcDbEntity
  8
0
370
     0
100
AcDbVertex
100
AcDb2dVertex
 10
903.793274
 20
369.652344
 30
0.0
  0
VERTEX
  5
60D
330
609
100
AcDbEntity
  8
0
370
     0
100
AcDbVertex
100
AcDb2dVertex
 10
905.449402
 20
370.171997
 30
0.0
  0
VERTEX
  5
60E
330
609
100
AcDbEntity
  8
0
370
     0
100
AcDbVertex
100
AcDb2dVertex
 10
907.093201
 20
370.758209
 30
0.0
  0
VERTEX
  5
60F
330
609
100
AcDbEntity
  8
0
370
     0
100
AcDbVertex
100
AcDb2dVertex
 10
908.552063
 20
371.340424
 30
0.0
  0
VERTEX
  5
610
330
609
100
AcDbEntity
  8
0
370
     0
100
AcDbVertex
100
AcDb2dVertex
 10
909.997375
 20
371.978088
 30
0.0
  0
VERTEX
  5
611
330
609
100
AcDbEntity
  8
0
370
     0
100
AcDbVertex
100
AcDb2dVertex
 10
911.427185
 20
372.672302
 30
0.0
  0
VERTEX
  5
612
330
609
100
AcDbEntity
  8
0
370
     0
100
AcDbVertex
100
AcDb2dVertex
 10
912.839355
 20
373.424194
 30
0.0
  0
VERTEX
  5
613
330
609
100
AcDbEntity
  8
0
370
     0
100
AcDbVertex
100
AcDb2dVertex
 10
914.297302
 20
374.274994
 30
0.0
  0
VERTEX
  5
614
330
609
100
AcDbEntity
  8
0
370
     0
100
AcDbVertex
100
AcDb2dVertex
 10
915.071472
 20
374.759857
 30
0.0
  0
VERTEX
  5
615
330
609
100
AcDbEntity
  8
0
370
     0
100
AcDbVertex
100
AcDb2dVertex
 10
915.837952
 20
375.263977
 30
0.0
  0
VERTEX
  5
616
330
609
100
AcDbEntity
  8
0
370
     0
100
AcDbVertex
100
AcDb2dVertex
 10
916.596191
 20
375.787567
 30
0.0
  0
VERTEX
  5
617
330
609
100
AcDbEntity
  8
0
370
     0
100
AcDbVertex
100
AcDb2dVertex
 10
917.345703
 20
376.33078
 30
0.0
  0
VERTEX
  5
618
330
609
100
AcDbEntity
  8
0
370
     0
100
AcDbVertex
100
AcDb2dVertex
 10
918.085754
 20
376.893799
 30
0.0
  0
VERTEX
  5
619
330
609
100
AcDbEntity
  8
0
370
     0
100
AcDbVertex
100
AcDb2dVertex
 10
918.815857
 20
377.476776
 30
0.0
  0
VERTEX
  5
61A
330
609
100
AcDbEntity
  8
0
370
     0
100
AcDbVertex
100
AcDb2dVertex
 10
919.535278
 20
378.079834
 30
0.0
  0
VERTEX
  5
61B
330
609
100
AcDbEntity
  8
0
370
     0
100
AcDbVertex
100
AcDb2dVertex
 10
920.249084
 20
378.708282
 30
0.0
  0
VERTEX
  5
61C
330
609
100
AcDbEntity
  8
0
370
     0
100
AcDbVertex
100
AcDb2dVertex
 10
920.950623
 20
379.357361
 30
0.0
  0
VERTEX
  5
61D
330
609
100
AcDbEntity
  8
0
370
     0
100
AcDbVertex
100
AcDb2dVertex
 10
921.63916
 20
380.02713
 30
0.0
  0
VERTEX
  5
61E
330
609
100
AcDbEntity
  8
0
370
     0
100
AcDbVertex
100
AcDb2dVertex
 10
922.313965
 20
380.717712
 30
0.0
  0
VERTEX
  5
61F
330
609
100
AcDbEntity
  8
0
370
     0
100
AcDbVertex
100
AcDb2dVertex
 10
922.974121
 20
381.429047
 30
0.0
  0
VERTEX
  5
620
330
609
100
AcDbEntity
  8
0
370
     0
100
AcDbVertex
100
AcDb2dVertex
 10
923.618835
 20
382.161102
 30
0.0
  0
VERTEX
  5
621
330
609
100
AcDbEntity
  8
0
370
     0
100
AcDbVertex
100
AcDb2dVertex
 10
924.247192
 20
382.913818
 30
0.0
  0
VERTEX
  5
622
330
609
100
AcDbEntity
  8
0
370
     0
100
AcDbVertex
100
AcDb2dVertex
 10
924.858215
 20
383.687012
 30
0.0
  0
VERTEX
  5
623
330
609
100
AcDbEntity
  8
0
370
     0
100
AcDbVertex
100
AcDb2dVertex
 10
925.456787
 20
384.488434
 30
0.0
  0
VERTEX
  5
624
330
609
100
AcDbEntity
  8
0
370
     0
100
AcDbVertex
100
AcDb2dVertex
 10
926.035828
 20
385.310303
 30
0.0
  0
VERTEX
  5
625
330
609
100
AcDbEntity
  8
0
370
     0
100
AcDbVertex
100
AcDb2dVertex
 10
926.594238
 20
386.152313
 30
0.0
  0
VERTEX
  5
626
330
609
100
AcDbEntity
  8
0
370
     0
100
AcDbVertex
100
AcDb2dVertex
 10
927.131104
 20
387.014038
 30
0.0
  0
VERTEX
  5
627
330
609
100
AcDbEntity
  8
0
370
     0
100
AcDbVertex
100
AcDb2dVertex
 10
927.645386
 20
387.895081
 30
0.0
  0
VERTEX
  5
628
330
609
100
AcDbEntity
  8
0
370
     0
100
AcDbVertex
100
AcDb2dVertex
 10
928.136047
 20
388.794922
 30
0.0
  0
VERTEX
  5
629
330
609
100
AcDbEntity
  8
0
370
     0
100
AcDbVertex
100
AcDb2dVertex
 10
928.602051
 20
389.712891
 30
0.0
  0
VERTEX
  5
62A
330
609
100
AcDbEntity
  8
0
370
     0
100
AcDbVertex
100
AcDb2dVertex
 10
929.042419
 20
390.648438
 30
0.0
  0
VERTEX
  5
62B
330
609
100
AcDbEntity
  8
0
370
     0
100
AcDbVertex
100
AcDb2dVertex
 10
929.401611
 20
391.470428
 30
0.0
  0
VERTEX
  5
62C
330
609
100
AcDbEntity
  8
0
370
     0
100
AcDbVertex
100
AcDb2dVertex
 10
929.739136
 20
392.301575
 30
0.0
  0
VERTEX
  5
62D
330
609
100
AcDbEntity
  8
0
370
     0
100
AcDbVertex
100
AcDb2dVertex
 10
930.056702
 20
393.14679
 30
0.0
  0
VERTEX
  5
62E
330
609
100
AcDbEntity
  8
0
370
     0
100
AcDbVertex
100
AcDb2dVertex
 10
930.351685
 20
394.000122
 30
0.0
  0
VERTEX
  5
62F
330
609
100
AcDbEntity
  8
0
370
     0
100
AcDbVertex
100
AcDb2dVertex
 10
930.625366
 20
394.866028
 30
0.0
  0
VERTEX
  5
630
330
609
100
AcDbEntity
  8
0
370
     0
100
AcDbVertex
100
AcDb2dVertex
 10
930.875671
 20
395.738953
 30
0.0
  0
VERTEX
  5
631
330
609
100
AcDbEntity
  8
0
370
     0
100
AcDbVertex
100
AcDb2dVertex
 10
931.103333
 20
396.622711
 30
0.0
  0
VERTEX
  5
632
330
609
100
AcDbEntity
  8
0
370
     0
100
AcDbVertex
100
AcDb2dVertex
 10
931.306885
 20
397.51239
 30
0.0
  0
SEQEND
  5
633
330
609
100
AcDbEntity
  8
0
 62
     7
370
    35
  0
POLYLINE
  5
634
330
1F
100
AcDbEntity
  8
0
 62
     7
370
    35
100
AcDb2dPolyline
 66
     1
 10
0.0
 20
0.0
 30
0.0
  0
VERTEX
  5
635
330
634
100
AcDbEntity
  8
0
370
     0
100
AcDbVertex
100
AcDb2dVertex
 10
737.219299
 20
388.072815
 30
0.0
  0
VERTEX
  5
636
330
634
100
AcDbEntity
  8
0
370
     0
100
AcDbVertex
100
AcDb2dVertex
 10
736.140381
 20
387.888153
 30
0.0
  0
VERTEX
  5
637
330
634
100
AcDbEntity
  8
0
370
     0
100
AcDbVertex
100
AcDb2dVertex
 10
735.054749
 20
387.724091
 30
0.0
  0
VERTEX
  5
638
330
634
100
AcDbEntity
  8
0
370
     0
100
AcDbVertex
100
AcDb2dVertex
 10
733.963135
 20
387.580719
 30
0.0
  0
VERTEX
  5
639
330
634
100
AcDbEntity
  8
0
370
     0
100
AcDbVertex
100
AcDb2dVertex
 10
732.86615
 20
387.458191
 30
0.0
  0
VERTEX
  5
63A
330
634
100
AcDbEntity
  8
0
370
     0
100
AcDbVertex
100
AcDb2dVertex
 10
731.764587
 20
387.356537
 30
0.0
  0
VERTEX
  5
63B
330
634
100
AcDbEntity
  8
0
370
     0
100
AcDbVertex
100
AcDb2dVertex
 10
730.659058
 20
387.275879
 30
0.0
  0
VERTEX
  5
63C
330
634
100
AcDbEntity
  8
0
370
     0
100
AcDbVertex
100
AcDb2dVertex
 10
729.550293
 20
387.216248
 30
0.0
  0
VERTEX
  5
63D
330
634
100
AcDbEntity
  8
0
370
     0
100
AcDbVertex
100
AcDb2dVertex
 10
728.439026
 20
387.177704
 30
0.0
  0
VERTEX
  5
63E
330
634
100
AcDbEntity
  8
0
370
     0
100
AcDbVertex
100
AcDb2dVertex
 10
727.325928
 20
387.160278
 30
0.0
  0
VERTEX
  5
63F
330
634
100
AcDbEntity
  8
0
370
     0
100
AcDbVertex
100
AcDb2dVertex
 10
726.21167
 20
387.163971
 30
0.0
  0
VERTEX
  5
640
330
634
100
AcDbEntity
  8
0
370
     0
100
AcDbVertex
100
AcDb2dVertex
 10
725.097046
 20
387.188812
 30
0.0
  0
VERTEX
  5
641
330
634
100
AcDbEntity
  8
0
370
     0
100
AcDbVertex
100
AcDb2dVertex
 10
723.982727
 20
387.234741
 30
0.0
  0
VERTEX
  5
642
330
634
100
AcDbEntity
  8
0
370
     0
100
AcDbVertex
100
AcDb2dVertex
 10
722.869385
 20
387.301819
 30
0.0
  0
VERTEX
  5
643
330
634
100
AcDbEntity
  8
0
370
     0
100
AcDbVertex
100
AcDb2dVertex
 10
721.75769
 20
387.389893
 30
0.0
  0
VERTEX
  5
644
330
634
100
AcDbEntity
  8
0
370
     0
100
AcDbVertex
100
AcDb2dVertex
 10
720.648438
 20
387.498962
 30
0.0
  0
VERTEX
  5
645
330
634
100
AcDbEntity
  8
0
370
     0
100
AcDbVertex
100
AcDb2dVertex
 10
719.542297
 20
387.628967
 30
0.0
  0
VERTEX
  5
646
330
634
100
AcDbEntity
  8
0
370
     0
100
AcDbVertex
100
AcDb2dVertex
 10
718.439941
 20
387.779816
 30
0.0
  0
VERTEX
  5
647
330
634
100
AcDbEntity
  8
0
370
     0
100
AcDbVertex
100
AcDb2dVertex
 10
717.342041
 20
387.951385
 30
0.0
  0
VERTEX
  5
648
330
634
100
AcDbEntity
  8
0
370
     0
100
AcDbVertex
100
AcDb2dVertex
 10
716.249329
 20
388.143585
 30
0.0
  0
VERTEX
  5
649
330
634
100
AcDbEntity
  8
0
370
     0
100
AcDbVertex
100
AcDb2dVertex
 10
715.162476
 20
388.356262
 30
0.0
  0
VERTEX
  5
64A
330
634
100
AcDbEntity
  8
0
370
     0
100
AcDbVertex
100
AcDb2dVertex
 10
714.082214
 20
388.589294
 30
0.0
  0
VERTEX
  5
64B
330
634
100
AcDbEntity
  8
0
370
     0
100
AcDbVertex
100
AcDb2dVertex
 10
713.009155
 20
388.842499
 30
0.0
  0
VERTEX
  5
64C
330
634
100
AcDbEntity
  8
0
370
     0
100
AcDbVertex
100
AcDb2dVertex
 10
711.944092
 20
389.115723
 30
0.0
  0
VERTEX
  5
64D
330
634
100
AcDbEntity
  8
0
370
     0
100
AcDbVertex
100
AcDb2dVertex
 10
710.887512
 20
389.408813
 30
0.0
  0
VERTEX
  5
64E
330
634
100
AcDbEntity
  8
0
370
     0
100
AcDbVertex
100
AcDb2dVertex
 10
709.84021
 20
389.721497
 30
0.0
  0
VERTEX
  5
64F
330
634
100
AcDbEntity
  8
0
370
     0
100
AcDbVertex
100
AcDb2dVertex
 10
708.802856
 20
390.05365
 30
0.0
  0
VERTEX
  5
650
330
634
100
AcDbEntity
  8
0
370
     0
100
AcDbVertex
100
AcDb2dVertex
 10
707.776062
 20
390.404938
 30
0.0
  0
VERTEX
  5
651
330
634
100
AcDbEntity
  8
0
370
     0
100
AcDbVertex
100
AcDb2dVertex
 10
706.760498
 20
390.775208
 30
0.0
  0
VERTEX
  5
652
330
634
100
AcDbEntity
  8
0
370
     0
100
AcDbVertex
100
AcDb2dVertex
 10
705.756775
 20
391.164154
 30
0.0
  0
VERTEX
  5
653
330
634
100
AcDbEntity
  8
0
370
     0
100
AcDbVertex
100
AcDb2dVertex
 10
704.765564
 20
391.571503
 30
0.0
  0
VERTEX
  5
654
330
634
100
AcDbEntity
  8
0
370
     0
100
AcDbVertex
100
AcDb2dVertex
 10
703.787476
 20
391.997009
 30
0.0
  0
VERTEX
  5
655
330
634
100
AcDbEntity
  8
0
370
     0
100
AcDbVertex
100
AcDb2dVertex
 10
702.823059
 20
392.440369
 30
0.0
  0
VERTEX
  5
656
330
634
100
AcDbEntity
  8
0
370
     0
100
AcDbVertex
100
AcDb2dVertex
 10
701.51178
 20
393.083008
 30
0.0
  0
VERTEX
  5
657
330
634
100
AcDbEntity
  8
0
370
     0
100
AcDbVertex
100
AcDb2dVertex
 10
700.229492
 20
393.758392
 30
0.0
  0
VERTEX
  5
658
330
634
100
AcDbEntity
  8
0
370
     0
100
AcDbVertex
100
AcDb2dVertex
 10
698.977722
 20
394.465637
 30
0.0
  0
VERTEX
  5
659
330
634
100
AcDbEntity
  8
0
370
     0
100
AcDbVertex
100
AcDb2dVertex
 10
697.757996
 20
395.203735
 30
0.0
  0
VERTEX
  5
65A
330
634
100
AcDbEntity
  8
0
370
     0
100
AcDbVertex
100
AcDb2dVertex
 10
696.701111
 20
395.885468
 30
0.0
  0
VERTEX
  5
65B
330
634
100
AcDbEntity
  8
0
370
     0
100
AcDbVertex
100
AcDb2dVertex
 10
695.671631
 20
396.590149
 30
0.0
  0
VERTEX
  5
65C
330
634
100
AcDbEntity
  8
0
370
     0
100
AcDbVertex
100
AcDb2dVertex
 10
694.856384
 20
397.178833
 30
0.0
  0
VERTEX
  5
65D
330
634
100
AcDbEntity
  8
0
370
     0
100
AcDbVertex
100
AcDb2dVertex
 10
694.060303
 20
397.781738
 30
0.0
  0
VERTEX
  5
65E
330
634
100
AcDbEntity
  8
0
370
     0
100
AcDbVertex
100
AcDb2dVertex
 10
693.283936
 20
398.398499
 30
0.0
  0
VERTEX
  5
65F
330
634
100
AcDbEntity
  8
0
370
     0
100
AcDbVertex
100
AcDb2dVertex
 10
692.527588
 20
399.028687
 30
0.0
  0
VERTEX
  5
660
330
634
100
AcDbEntity
  8
0
370
     0
100
AcDbVertex
100
AcDb2dVertex
 10
691.79187
 20
399.671844
 30
0.0
  0
VERTEX
  5
661
330
634
100
AcDbEntity
  8
0
370
     0
100
AcDbVertex
100
AcDb2dVertex
 10
691.077087
 20
400.327515
 30
0.0
  0
VERTEX
  5
662
330
634
100
AcDbEntity
  8
0
370
     0
100
AcDbVertex
100
AcDb2dVertex
 10
690.383667
 20
400.99527
 30
0.0
  0
VERTEX
  5
663
330
634
100
AcDbEntity
  8
0
370
     0
100
AcDbVertex
100
AcDb2dVertex
 10
689.712036
 20
401.674683
 30
0.0
  0
VERTEX
  5
664
330
634
100
AcDbEntity
  8
0
370
     0
100
AcDbVertex
100
AcDb2dVertex
 10
689.0625
 20
402.365295
 30
0.0
  0
VERTEX
  5
665
330
634
100
AcDbEntity
  8
0
370
     0
100
AcDbVertex
100
AcDb2dVertex
 10
688.435486
 20
403.066589
 30
0.0
  0
VERTEX
  5
666
330
634
100
AcDbEntity
  8
0
370
     0
100
AcDbVertex
100
AcDb2dVertex
 10
687.831299
 20
403.778137
 30
0.0
  0
VERTEX
  5
667
330
634
100
AcDbEntity
  8
0
370
     0
100
AcDbVertex
100
AcDb2dVertex
 10
687.250183
 20
404.499481
 30
0.0
  0
VERTEX
  5
668
330
634
100
AcDbEntity
  8
0
370
     0
100
AcDbVertex
100
AcDb2dVertex
 10
686.692566
 20
405.230103
 30
0.0
  0
VERTEX
  5
669
330
634
100
AcDbEntity
  8
0
370
     0
100
AcDbVertex
100
AcDb2dVertex
 10
686.15863
 20
405.969543
 30
0.0
  0
VERTEX
  5
66A
330
634
100
AcDbEntity
  8
0
370
     0
100
AcDbVertex
100
AcDb2dVertex
 10
685.648682
 20
406.717285
 30
0.0
  0
VERTEX
  5
66B
330
634
100
AcDbEntity
  8
0
370
     0
100
AcDbVertex
100
AcDb2dVertex
 10
685.162964
 20
407.472931
 30
0.0
  0
VERTEX
  5
66C
330
634
100
AcDbEntity
  8
0
370
     0
100
AcDbVertex
100
AcDb2dVertex
 10
684.70166
 20
408.235992
 30
0.0
  0
VERTEX
  5
66D
330
634
100
AcDbEntity
  8
0
370
     0
100
AcDbVertex
100
AcDb2dVertex
 10
684.265015
 20
409.00592
 30
0.0
  0
VERTEX
  5
66E
330
634
100
AcDbEntity
  8
0
370
     0
100
AcDbVertex
100
AcDb2dVertex
 10
683.85321
 20
409.782318
 30
0.0
  0
VERTEX
  5
66F
330
634
100
AcDbEntity
  8
0
370
     0
100
AcDbVertex
100
AcDb2dVertex
 10
683.466431
 20
410.564636
 30
0.0
  0
VERTEX
  5
670
330
634
100
AcDbEntity
  8
0
370
     0
100
AcDbVertex
100
AcDb2dVertex
 10
683.104858
 20
411.352448
 30
0.0
  0
VERTEX
  5
671
330
634
100
AcDbEntity
  8
0
370
     0
100
AcDbVertex
100
AcDb2dVertex
 10
682.768555
 20
412.145264
 30
0.0
  0
VERTEX
  5
672
330
634
100
AcDbEntity
  8
0
370
     0
100
AcDbVertex
100
AcDb2dVertex
 10
682.457703
 20
412.942627
 30
0.0
  0
VERTEX
  5
673
330
634
100
AcDbEntity
  8
0
370
     0
100
AcDbVertex
100
AcDb2dVertex
 10
682.172424
 20
413.74408
 30
0.0
  0
SEQEND
  5
674
330
634
100
AcDbEntity
  8
0
 62
     7
370
    35
  0
LINE
  5
675
330
1F
100
AcDbEntity
  8
0
 62
     7
370
    35
100
AcDbLine
 10
653.903809
 20
497.091461
 30
0.0
 11
682.172424
 21
413.74408
 31
0.0
  0
ELLIPSE
  5
676
330
1F
100
AcDbEntity
  8
0
 62
     7
370
    35
100
AcDbEllipse
 10
697.624207
 20
504.440002
 30
0.0
 11
45.106201171875
 21
-2.819854736328125
 31
0.0
210
0.0
220
0.0
230
1.0
 40
0.753572
 41
3.257787617322855
 42
3.441517146802997
  0
ARC
  5
677
330
1F
100
AcDbEntity
  8
0
 62
     7
370
    35
100
AcDbCircle
 10
691.974731
 20
454.409851
 30
0.0
 40
34.78788006903355
100
AcDbArc
 50
187.892606
 51
198.415414
  0
POLYLINE
  5
678
330
1F
100
AcDbEntity
  8
0
 62
     7
370
    35
100
AcDb2dPolyline
 66
     1
 10
0.0
 20
0.0
 30
0.0
  0
VERTEX
  5
679
330
678
100
AcDbEntity
  8
0
370
     0
100
AcDbVertex
100
AcDb2dVertex
 10
658.96814
 20
443.420166
 30
0.0
  0
VERTEX
  5
67A
330
678
100
AcDbEntity
  8
0
370
     0
100
AcDbVertex
100
AcDb2dVertex
 10
665.74176
 20
423.127563
 30
0.0
  0
VERTEX
  5
67B
330
678
100
AcDbEntity
  8
0
370
     0
100
AcDbVertex
100
AcDb2dVertex
 10
672.449524
 20
403.237976
 30
0.0
  0
VERTEX
  5
67C
330
678
100
AcDbEntity
  8
0
370
     0
100
AcDbVertex
100
AcDb2dVertex
 10
679.135681
 20
383.636841
 30
0.0
  0
VERTEX
  5
67D
330
678
100
AcDbEntity
  8
0
370
     0
100
AcDbVertex
100
AcDb2dVertex
 10
685.845764
 20
364.174133
 30
0.0
  0
SEQEND
  5
67E
330
678
100
AcDbEntity
  8
0
 62
     7
370
    35
  0
LINE
  5
67F
330
1F
100
AcDbEntity
  8
0
 62
     7
370
    35
100
AcDbLine
 10
931.306885
 20
397.51239
 30
0.0
 11
936.161926
 21
420.14682
 31
0.0
  0
POLYLINE
  5
680
330
1F
100
AcDbEntity
  8
0
 62
     7
370
    35
100
AcDb2dPolyline
 66
     1
 10
0.0
 20
0.0
 30
0.0
  0
VERTEX
  5
681
330
680
100
AcDbEntity
  8
0
370
     0
100
AcDbVertex
100
AcDb2dVertex
 10
909.053406
 20
419.219055
 30
0.0
  0
VERTEX
  5
682
330
680
100
AcDbEntity
  8
0
370
     0
100
AcDbVertex
100
AcDb2dVertex
 10
910.124939
 20
419.424164
 30
0.0
  0
VERTEX
  5
683
330
680
100
AcDbEntity
  8
0
370
     0
100
AcDbVertex
100
AcDb2dVertex
 10
911.188416
 20
419.649597
 30
0.0
  0
VERTEX
  5
684
330
680
100
AcDbEntity
  8
0
370
     0
100
AcDbVertex
100
AcDb2dVertex
 10
912.243164
 20
419.895172
 30
0.0
  0
VERTEX
  5
685
330
680
100
AcDbEntity
  8
0
370
     0
100
AcDbVertex
100
AcDb2dVertex
 10
913.288513
 20
420.160706
 30
0.0
  0
VERTEX
  5
686
330
680
100
AcDbEntity
  8
0
370
     0
100
AcDbVertex
100
AcDb2dVertex
 10
914.32373
 20
420.446045
 30
0.0
  0
VERTEX
  5
687
330
680
100
AcDbEntity
  8
0
370
     0
100
AcDbVertex
100
AcDb2dVertex
 10
915.348328
 20
420.750946
 30
0.0
  0
VERTEX
  5
688
330
680
100
AcDbEntity
  8
0
370
     0
100
AcDbVertex
100
AcDb2dVertex
 10
916.361511
 20
421.075226
 30
0.0
  0
VERTEX
  5
689
330
680
100
AcDbEntity
  8
0
370
     0
100
AcDbVertex
100
AcDb2dVertex
 10
917.362671
 20
421.41861
 30
0.0
  0
VERTEX
  5
68A
330
680
100
AcDbEntity
  8
0
370
     0
100
AcDbVertex
100
AcDb2dVertex
 10
918.687561
 20
421.909546
 30
0.0
  0
VERTEX
  5
68B
330
680
100
AcDbEntity
  8
0
370
     0
100
AcDbVertex
100
AcDb2dVertex
 10
919.98822
 20
422.433899
 30
0.0
  0
VERTEX
  5
68C
330
680
100
AcDbEntity
  8
0
370
     0
100
AcDbVertex
100
AcDb2dVertex
 10
921.263184
 20
422.991028
 30
0.0
  0
VERTEX
  5
68D
330
680
100
AcDbEntity
  8
0
370
     0
100
AcDbVertex
100
AcDb2dVertex
 10
922.510925
 20
423.58017
 30
0.0
  0
VERTEX
  5
68E
330
680
100
AcDbEntity
  8
0
370
     0
100
AcDbVertex
100
AcDb2dVertex
 10
923.703674
 20
424.186584
 30
0.0
  0
VERTEX
  5
68F
330
680
100
AcDbEntity
  8
0
370
     0
100
AcDbVertex
100
AcDb2dVertex
 10
924.867859
 20
424.822205
 30
0.0
  0
VERTEX
  5
690
330
680
100
AcDbEntity
  8
0
370
     0
100
AcDbVertex
100
AcDb2dVertex
 10
925.734375
 20
425.325195
 30
0.0
  0
VERTEX
  5
691
330
680
100
AcDbEntity
  8
0
370
     0
100
AcDbVertex
100
AcDb2dVertex
 10
926.58313
 20
425.844299
 30
0.0
  0
VERTEX
  5
692
330
680
100
AcDbEntity
  8
0
370
     0
100
AcDbVertex
100
AcDb2dVertex
 10
927.413574
 20
426.37915
 30
0.0
  0
VERTEX
  5
693
330
680
100
AcDbEntity
  8
0
370
     0
100
AcDbVertex
100
AcDb2dVertex
 10
928.225342
 20
426.929352
 30
0.0
  0
VERTEX
  5
694
330
680
100
AcDbEntity
  8
0
370
     0
100
AcDbVertex
100
AcDb2dVertex
 10
929.017883
 20
427.494568
 30
0.0
  0
VERTEX
  5
695
330
680
100
AcDbEntity
  8
0
370
     0
100
AcDbVertex
100
AcDb2dVertex
 10
929.790771
 20
428.074371
 30
0.0
  0
VERTEX
  5
696
330
680
100
AcDbEntity
  8
0
370
     0
100
AcDbVertex
100
AcDb2dVertex
 10
930.543518
 20
428.668335
 30
0.0
  0
VERTEX
  5
697
330
680
100
AcDbEntity
  8
0
370
     0
100
AcDbVertex
100
AcDb2dVertex
 10
931.275696
 20
429.276123
 30
0.0
  0
VERTEX
  5
698
330
680
100
AcDbEntity
  8
0
370
     0
100
AcDbVertex
100
AcDb2dVertex
 10
931.986938
 20
429.897247
 30
0.0
  0
VERTEX
  5
699
330
680
100
AcDbEntity
  8
0
370
     0
100
AcDbVertex
100
AcDb2dVertex
 10
932.676819
 20
430.531342
 30
0.0
  0
VERTEX
  5
69A
330
680
100
AcDbEntity
  8
0
370
     0
100
AcDbVertex
100
AcDb2dVertex
 10
933.344971
 20
431.177917
 30
0.0
  0
VERTEX
  5
69B
330
680
100
AcDbEntity
  8
0
370
     0
100
AcDbVertex
100
AcDb2dVertex
 10
933.991028
 20
431.836517
 30
0.0
  0
VERTEX
  5
69C
330
680
100
AcDbEntity
  8
0
370
     0
100
AcDbVertex
100
AcDb2dVertex
 10
934.614624
 20
432.506744
 30
0.0
  0
VERTEX
  5
69D
330
680
100
AcDbEntity
  8
0
370
     0
100
AcDbVertex
100
AcDb2dVertex
 10
935.215454
 20
433.188141
 30
0.0
  0
VERTEX
  5
69E
330
680
100
AcDbEntity
  8
0
370
     0
100
AcDbVertex
100
AcDb2dVertex
 10
935.793152
 20
433.880249
 30
0.0
  0
VERTEX
  5
69F
330
680
100
AcDbEntity
  8
0
370
     0
100
AcDbVertex
100
AcDb2dVertex
 10
936.347534
 20
434.582611
 30
0.0
  0
VERTEX
  5
6A0
330
680
100
AcDbEntity
  8
0
370
     0
100
AcDbVertex
100
AcDb2dVertex
 10
936.878296
 20
435.2948
 30
0.0
  0
VERTEX
  5
6A1
330
680
100
AcDbEntity
  8
0
370
     0
100
AcDbVertex
100
AcDb2dVertex
 10
937.385132
 20
436.016357
 30
0.0
  0
VERTEX
  5
6A2
330
680
100
AcDbEntity
  8
0
370
     0
100
AcDbVertex
100
AcDb2dVertex
 10
937.86792
 20
436.746826
 30
0.0
  0
VERTEX
  5
6A3
330
680
100
AcDbEntity
  8
0
370
     0
100
AcDbVertex
100
AcDb2dVertex
 10
938.326294
 20
437.485718
 30
0.0
  0
VERTEX
  5
6A4
330
680
100
AcDbEntity
  8
0
370
     0
100
AcDbVertex
100
AcDb2dVertex
 10
938.760193
 20
438.232574
 30
0.0
  0
VERTEX
  5
6A5
330
680
100
AcDbEntity
  8
0
370
     0
100
AcDbVertex
100
AcDb2dVertex
 10
939.169312
 20
438.987
 30
0.0
  0
VERTEX
  5
6A6
330
680
100
AcDbEntity
  8
0
370
     0
100
AcDbVertex
100
AcDb2dVertex
 10
939.553589
 20
439.748535
 30
0.0
  0
VERTEX
  5
6A7
330
680
100
AcDbEntity
  8
0
370
     0
100
AcDbVertex
100
AcDb2dVertex
 10
939.912781
 20
440.516693
 30
0.0
  0
VERTEX
  5
6A8
330
680
100
AcDbEntity
  8
0
370
     0
100
AcDbVertex
100
AcDb2dVertex
 10
940.46759
 20
441.841644
 30
0.0
  0
VERTEX
  5
6A9
330
680
100
AcDbEntity
  8
0
370
     0
100
AcDbVertex
100
AcDb2dVertex
 10
940.948486
 20
443.182587
 30
0.0
  0
VERTEX
  5
6AA
330
680
100
AcDbEntity
  8
0
370
     0
100
AcDbVertex
100
AcDb2dVertex
 10
941.355042
 20
444.537445
 30
0.0
  0
VERTEX
  5
6AB
330
680
100
AcDbEntity
  8
0
370
     0
100
AcDbVertex
100
AcDb2dVertex
 10
941.686829
 20
445.904175
 30
0.0
  0
SEQEND
  5
6AC
330
680
100
AcDbEntity
  8
0
 62
     7
370
    35
  0
POLYLINE
  5
6AD
330
1F
100
AcDbEntity
  8
0
 62
     7
370
    35
100
AcDb2dPolyline
 66
     1
 10
0.0
 20
0.0
 30
0.0
  0
VERTEX
  5
6AE
330
6AD
100
AcDbEntity
  8
0
370
     0
100
AcDbVertex
100
AcDb2dVertex
 10
732.926086
 20
338.442749
 30
0.0
  0
VERTEX
  5
6AF
330
6AD
100
AcDbEntity
  8
0
370
     0
100
AcDbVertex
100
AcDb2dVertex
 10
731.239136
 20
338.223602
 30
0.0
  0
VERTEX
  5
6B0
330
6AD
100
AcDbEntity
  8
0
370
     0
100
AcDbVertex
100
AcDb2dVertex
 10
729.543274
 20
338.066162
 30
0.0
  0
VERTEX
  5
6B1
330
6AD
100
AcDbEntity
  8
0
370
     0
100
AcDbVertex
100
AcDb2dVertex
 10
727.842346
 20
337.97049
 30
0.0
  0
VERTEX
  5
6B2
330
6AD
100
AcDbEntity
  8
0
370
     0
100
AcDbVertex
100
AcDb2dVertex
 10
726.138
 20
337.93634
 30
0.0
  0
VERTEX
  5
6B3
330
6AD
100
AcDbEntity
  8
0
370
     0
100
AcDbVertex
100
AcDb2dVertex
 10
724.432251
 20
337.963684
 30
0.0
  0
VERTEX
  5
6B4
330
6AD
100
AcDbEntity
  8
0
370
     0
100
AcDbVertex
100
AcDb2dVertex
 10
722.726196
 20
338.052429
 30
0.0
  0
VERTEX
  5
6B5
330
6AD
100
AcDbEntity
  8
0
370
     0
100
AcDbVertex
100
AcDb2dVertex
 10
721.021423
 20
338.20282
 30
0.0
  0
VERTEX
  5
6B6
330
6AD
100
AcDbEntity
  8
0
370
     0
100
AcDbVertex
100
AcDb2dVertex
 10
719.31958
 20
338.415039
 30
0.0
  0
VERTEX
  5
6B7
330
6AD
100
AcDbEntity
  8
0
370
     0
100
AcDbVertex
100
AcDb2dVertex
 10
717.621338
 20
338.689697
 30
0.0
  0
VERTEX
  5
6B8
330
6AD
100
AcDbEntity
  8
0
370
     0
100
AcDbVertex
100
AcDb2dVertex
 10
715.929504
 20
339.027039
 30
0.0
  0
VERTEX
  5
6B9
330
6AD
100
AcDbEntity
  8
0
370
     0
100
AcDbVertex
100
AcDb2dVertex
 10
714.245972
 20
339.427643
 30
0.0
  0
VERTEX
  5
6BA
330
6AD
100
AcDbEntity
  8
0
370
     0
100
AcDbVertex
100
AcDb2dVertex
 10
712.572754
 20
339.892151
 30
0.0
  0
VERTEX
  5
6BB
330
6AD
100
AcDbEntity
  8
0
370
     0
100
AcDbVertex
100
AcDb2dVertex
 10
710.909058
 20
340.422241
 30
0.0
  0
VERTEX
  5
6BC
330
6AD
100
AcDbEntity
  8
0
370
     0
100
AcDbVertex
100
AcDb2dVertex
 10
709.260071
 20
341.017883
 30
0.0
  0
VERTEX
  5
6BD
330
6AD
100
AcDbEntity
  8
0
370
     0
100
AcDbVertex
100
AcDb2dVertex
 10
707.628113
 20
341.680023
 30
0.0
  0
VERTEX
  5
6BE
330
6AD
100
AcDbEntity
  8
0
370
     0
100
AcDbVertex
100
AcDb2dVertex
 10
706.015869
 20
342.409515
 30
0.0
  0
VERTEX
  5
6BF
330
6AD
100
AcDbEntity
  8
0
370
     0
100
AcDbVertex
100
AcDb2dVertex
 10
705.172424
 20
342.822693
 30
0.0
  0
VERTEX
  5
6C0
330
6AD
100
AcDbEntity
  8
0
370
     0
100
AcDbVertex
100
AcDb2dVertex
 10
704.335693
 20
343.255127
 30
0.0
  0
VERTEX
  5
6C1
330
6AD
100
AcDbEntity
  8
0
370
     0
100
AcDbVertex
100
AcDb2dVertex
 10
703.506104
 20
343.706909
 30
0.0
  0
VERTEX
  5
6C2
330
6AD
100
AcDbEntity
  8
0
370
     0
100
AcDbVertex
100
AcDb2dVertex
 10
702.684143
 20
344.178223
 30
0.0
  0
VERTEX
  5
6C3
330
6AD
100
AcDbEntity
  8
0
370
     0
100
AcDbVertex
100
AcDb2dVertex
 10
701.870361
 20
344.669189
 30
0.0
  0
VERTEX
  5
6C4
330
6AD
100
AcDbEntity
  8
0
370
     0
100
AcDbVertex
100
AcDb2dVertex
 10
701.065125
 20
345.179932
 30
0.0
  0
VERTEX
  5
6C5
330
6AD
100
AcDbEntity
  8
0
370
     0
100
AcDbVertex
100
AcDb2dVertex
 10
700.269043
 20
345.710632
 30
0.0
  0
VERTEX
  5
6C6
330
6AD
100
AcDbEntity
  8
0
370
     0
100
AcDbVertex
100
AcDb2dVertex
 10
699.482544
 20
346.261566
 30
0.0
  0
VERTEX
  5
6C7
330
6AD
100
AcDbEntity
  8
0
370
     0
100
AcDbVertex
100
AcDb2dVertex
 10
698.089355
 20
347.307129
 30
0.0
  0
VERTEX
  5
6C8
330
6AD
100
AcDbEntity
  8
0
370
     0
100
AcDbVertex
100
AcDb2dVertex
 10
696.732971
 20
348.419495
 30
0.0
  0
VERTEX
  5
6C9
330
6AD
100
AcDbEntity
  8
0
370
     0
100
AcDbVertex
100
AcDb2dVertex
 10
695.41748
 20
349.599091
 30
0.0
  0
VERTEX
  5
6CA
330
6AD
100
AcDbEntity
  8
0
370
     0
100
AcDbVertex
100
AcDb2dVertex
 10
694.775085
 20
350.215454
 30
0.0
  0
VERTEX
  5
6CB
330
6AD
100
AcDbEntity
  8
0
370
     0
100
AcDbVertex
100
AcDb2dVertex
 10
694.146973
 20
350.846313
 30
0.0
  0
VERTEX
  5
6CC
330
6AD
100
AcDbEntity
  8
0
370
     0
100
AcDbVertex
100
AcDb2dVertex
 10
693.490662
 20
351.537781
 30
0.0
  0
VERTEX
  5
6CD
330
6AD
100
AcDbEntity
  8
0
370
     0
100
AcDbVertex
100
AcDb2dVertex
 10
692.849121
 20
352.248413
 30
0.0
  0
VERTEX
  5
6CE
330
6AD
100
AcDbEntity
  8
0
370
     0
100
AcDbVertex
100
AcDb2dVertex
 10
692.223022
 20
352.97821
 30
0.0
  0
VERTEX
  5
6CF
330
6AD
100
AcDbEntity
  8
0
370
     0
100
AcDbVertex
100
AcDb2dVertex
 10
691.613159
 20
353.727051
 30
0.0
  0
VERTEX
  5
6D0
330
6AD
100
AcDbEntity
  8
0
370
     0
100
AcDbVertex
100
AcDb2dVertex
 10
691.020386
 20
354.494812
 30
0.0
  0
VERTEX
  5
6D1
330
6AD
100
AcDbEntity
  8
0
370
     0
100
AcDbVertex
100
AcDb2dVertex
 10
690.445435
 20
355.281372
 30
0.0
  0
VERTEX
  5
6D2
330
6AD
100
AcDbEntity
  8
0
370
     0
100
AcDbVertex
100
AcDb2dVertex
 10
689.889221
 20
356.086517
 30
0.0
  0
VERTEX
  5
6D3
330
6AD
100
AcDbEntity
  8
0
370
     0
100
AcDbVertex
100
AcDb2dVertex
 10
689.3526
 20
356.909912
 30
0.0
  0
VERTEX
  5
6D4
330
6AD
100
AcDbEntity
  8
0
370
     0
100
AcDbVertex
100
AcDb2dVertex
 10
688.83197
 20
357.758759
 30
0.0
  0
VERTEX
  5
6D5
330
6AD
100
AcDbEntity
  8
0
370
     0
100
AcDbVertex
100
AcDb2dVertex
 10
688.333069
 20
358.625519
 30
0.0
  0
VERTEX
  5
6D6
330
6AD
100
AcDbEntity
  8
0
370
     0
100
AcDbVertex
100
AcDb2dVertex
 10
687.85675
 20
359.509796
 30
0.0
  0
VERTEX
  5
6D7
330
6AD
100
AcDbEntity
  8
0
370
     0
100
AcDbVertex
100
AcDb2dVertex
 10
687.403931
 20
360.411072
 30
0.0
  0
VERTEX
  5
6D8
330
6AD
100
AcDbEntity
  8
0
370
     0
100
AcDbVertex
100
AcDb2dVertex
 10
686.975525
 20
361.328827
 30
0.0
  0
VERTEX
  5
6D9
330
6AD
100
AcDbEntity
  8
0
370
     0
100
AcDbVertex
100
AcDb2dVertex
 10
686.572449
 20
362.26236
 30
0.0
  0
VERTEX
  5
6DA
330
6AD
100
AcDbEntity
  8
0
370
     0
100
AcDbVertex
100
AcDb2dVertex
 10
686.195557
 20
363.210999
 30
0.0
  0
VERTEX
  5
6DB
330
6AD
100
AcDbEntity
  8
0
370
     0
100
AcDbVertex
100
AcDb2dVertex
 10
685.845764
 20
364.174133
 30
0.0
  0
SEQEND
  5
6DC
330
6AD
100
AcDbEntity
  8
0
 62
     7
370
    35
  0
ENDSEC
  0
SECTION
  2
OBJECTS
  0
DICTIONARY
  5
C
330
0
100
AcDbDictionary
281
     1
  3
ACAD_GROUP
350
D
  3
ACAD_LAYOUT
350
1A
  3
ACAD_MLINESTYLE
350
17
  3
ACAD_PLOTSETTINGS
350
19
  3
ACAD_PLOTSTYLENAME
350
E
  3
ACAD_SCALELIST
350
47
  0
DICTIONARY
  5
D
102
{ACAD_REACTORS
330
C
102
}
330
C
100
AcDbDictionary
281
     1
  0
DICTIONARY
  5
1A
102
{ACAD_REACTORS
330
C
102
}
330
C
100
AcDbDictionary
281
     1
  3
Layout1
350
1E
  3
Layout2
350
26
  3
Model
350
22
  0
DICTIONARY
  5
17
102
{ACAD_REACTORS
330
C
102
}
330
C
100
AcDbDictionary
281
     1
  3
Standard
350
18
  0
DICTIONARY
  5
19
102
{ACAD_REACTORS
330
C
102
}
330
C
100
AcDbDictionary
281
     1
  0
ACDBDICTIONARYWDFLT
  5
E
102
{ACAD_REACTORS
330
C
102
}
330
C
100
AcDbDictionary
281
     1
  3
Normal
350
F
100
AcDbDictionaryWithDefault
340
F
  0
DICTIONARY
  5
47
102
{ACAD_REACTORS
330
C
102
}
330
C
100
AcDbDictionary
281
     1
  3
A0
350
48
  3
A1
350
49
  3
A2
350
4A
  3
A3
350
4B
  3
A4
350
4C
  3
A5
350
4D
  3
A6
350
4E
  3
A7
350
4F
  3
A8
350
50
  3
A9
350
51
  3
B0
350
52
  3
B1
350
53
  3
B2
350
54
  3
B3
350
55
  3
B4
350
56
  3
B5
350
57
  3
B6
350
58
  3
B7
350
59
  3
B8
350
5A
  3
B9
350
5B
  3
C0
350
5C
  3
C1
350
5D
  3
C2
350
5E
  3
C3
350
5F
  3
C4
350
60
  3
C5
350
61
  3
C6
350
62
  3
C7
350
63
  3
C8
350
64
  3
C9
350
65
  3
D0
350
66
  3
D1
350
67
  3
D2
350
68
  0
LAYOUT
  5
1E
102
{ACAD_REACTORS
330
1A
102
}
330
1A
100
AcDbPlotSettings
  1

  2
none_device
  4

  6

 40
0.0
 41
0.0
 42
0.0
 43
0.0
 44
0.0
 45
0.0
 46
0.0
 47
0.0
 48
0.0
 49
0.0
140
0.0
141
0.0
142
1.0
143
1.0
 70
  4784
 72
     0
 73
     0
 74
     5
  7

 75
    16
147
1.0
148
0.0
149
0.0
100
AcDbLayout
  1
Layout1
 70
     1
 71
     1
 10
0.0
 20
0.0
 11
420.0
 21
297.0
 12
0.0
 22
0.0
 32
0.0
 14
0.0
 24
0.0
 34
0.0
 15
955.071411
 25
666.294067
 35
2.0
146
0.0
 13
0.0
 23
0.0
 33
0.0
 16
1.0
 26
0.0
 36
0.0
 17
0.0
 27
1.0
 37
0.0
 76
     0
330
1B
  0
LAYOUT
  5
26
102
{ACAD_REACTORS
330
1A
102
}
330
1A
100
AcDbPlotSettings
  1

  2
none_device
  4

  6

 40
0.0
 41
0.0
 42
0.0
 43
0.0
 44
0.0
 45
0.0
 46
0.0
 47
0.0
 48
0.0
 49
0.0
140
0.0
141
0.0
142
1.0
143
1.0
 70
  4784
 72
     0
 73
     0
 74
     5
  7

 75
    16
147
1.0
148
0.0
149
0.0
100
AcDbLayout
  1
Layout2
 70
     1
 71
     2
 10
0.0
 20
0.0
 11
0.0
 21
0.0
 12
0.0
 22
0.0
 32
0.0
 14
0.0
 24
0.0
 34
0.0
 15
0.0
 25
0.0
 35
0.0
146
0.0
 13
0.0
 23
0.0
 33
0.0
 16
1.0
 26
0.0
 36
0.0
 17
0.0
 27
1.0
 37
0.0
 76
     0
330
23
  0
LAYOUT
  5
22
102
{ACAD_REACTORS
330
1A
102
}
330
1A
100
AcDbPlotSettings
  1

  2
none_device
  4
Letter_(8.50_x_11.00_Inches)
  6

 40
6.35
 41
6.35
 42
6.350005
 43
6.350005
 44
215.9
 45
279.4
 46
0.0
 47
0.0
 48
0.0
 49
0.0
140
0.0
141
0.0
142
1.0
143
1.0
 70
  5808
 72
     0
 73
     0
 74
     0
  7

 75
     0
147
1.0
148
0.0
149
0.0
100
AcDbLayout
  1
Model
 70
     1
 71
     0
 10
0.0
 20
0.0
 11
420.0
 21
297.0
 12
0.0
 22
0.0
 32
0.0
 14
0.0
 24
0.0
 34
0.0
 15
955.071411
 25
666.294067
 35
2.0
146
0.0
 13
0.0
 23
0.0
 33
0.0
 16
1.0
 26
0.0
 36
0.0
 17
0.0
 27
1.0
 37
0.0
 76
     0
330
1F
331
29
  0
MLINESTYLE
  5
18
102
{ACAD_REACTORS
330
17
102
}
330
17
100
AcDbMlineStyle
  2
Standard
 70
     0
  3

 62
   256
 51
90.0
 52
90.0
 71
     2
 49
0.5
 62
   256
  6
BYLAYER
 49
-0.5
 62
   256
  6
BYLAYER
  0
ACDBPLACEHOLDER
  5
F
102
{ACAD_REACTORS
330
E
102
}
330
E
  0
SCALE
  5
48
102
{ACAD_REACTORS
330
47
102
}
330
47
100
AcDbScale
 70
     0
300
1:1
140
1.0
141
1.0
290
     1
  0
SCALE
  5
49
102
{ACAD_REACTORS
330
47
102
}
330
47
100
AcDbScale
 70
     0
300
1:2
140
1.0
141
2.0
290
     0
  0
SCALE
  5
4A
102
{ACAD_REACTORS
330
47
102
}
330
47
100
AcDbScale
 70
     0
300
1:4
140
1.0
141
4.0
290
     0
  0
SCALE
  5
4B
102
{ACAD_REACTORS
330
47
102
}
330
47
100
AcDbScale
 70
     0
300
1:5
140
1.0
141
5.0
290
     0
  0
SCALE
  5
4C
102
{ACAD_REACTORS
330
47
102
}
330
47
100
AcDbScale
 70
     0
300
1:8
140
1.0
141
8.0
290
     0
  0
SCALE
  5
4D
102
{ACAD_REACTORS
330
47
102
}
330
47
100
AcDbScale
 70
     0
300
1:10
140
1.0
141
10.0
290
     0
  0
SCALE
  5
4E
102
{ACAD_REACTORS
330
47
102
}
330
47
100
AcDbScale
 70
     0
300
1:16
140
1.0
141
16.0
290
     0
  0
SCALE
  5
4F
102
{ACAD_REACTORS
330
47
102
}
330
47
100
AcDbScale
 70
     0
300
1:20
140
1.0
141
20.0
290
     0
  0
SCALE
  5
50
102
{ACAD_REACTORS
330
47
102
}
330
47
100
AcDbScale
 70
     0
300
1:30
140
1.0
141
30.0
290
     0
  0
SCALE
  5
51
102
{ACAD_REACTORS
330
47
102
}
330
47
100
AcDbScale
 70
     0
300
1:40
140
1.0
141
40.0
290
     0
  0
SCALE
  5
52
102
{ACAD_REACTORS
330
47
102
}
330
47
100
AcDbScale
 70
     0
300
1:50
140
1.0
141
50.0
290
     0
  0
SCALE
  5
53
102
{ACAD_REACTORS
330
47
102
}
330
47
100
AcDbScale
 70
     0
300
1:100
140
1.0
141
100.0
290
     0
  0
SCALE
  5
54
102
{ACAD_REACTORS
330
47
102
}
330
47
100
AcDbScale
 70
     0
300
2:1
140
2.0
141
1.0
290
     0
  0
SCALE
  5
55
102
{ACAD_REACTORS
330
47
102
}
330
47
100
AcDbScale
 70
     0
300
4:1
140
4.0
141
1.0
290
     0
  0
SCALE
  5
56
102
{ACAD_REACTORS
330
47
102
}
330
47
100
AcDbScale
 70
     0
300
8:1
140
8.0
141
1.0
290
     0
  0
SCALE
  5
57
102
{ACAD_REACTORS
330
47
102
}
330
47
100
AcDbScale
 70
     0
300
10:1
140
10.0
141
1.0
290
     0
  0
SCALE
  5
58
102
{ACAD_REACTORS
330
47
102
}
330
47
100
AcDbScale
 70
     0
300
100:1
140
100.0
141
1.0
290
     0
  0
SCALE
  5
59
102
{ACAD_REACTORS
330
47
102
}
330
47
100
AcDbScale
 70
     0
300
1/128" = 1'-0"
140
0.007812
141
12.0
290
     0
  0
SCALE
  5
5A
102
{ACAD_REACTORS
330
47
102
}
330
47
100
AcDbScale
 70
     0
300
1/64" = 1'-0"
140
0.015625
141
12.0
290
     0
  0
SCALE
  5
5B
102
{ACAD_REACTORS
330
47
102
}
330
47
100
AcDbScale
 70
     0
300
1/32" = 1'-0"
140
0.03125
141
12.0
290
     0
  0
SCALE
  5
5C
102
{ACAD_REACTORS
330
47
102
}
330
47
100
AcDbScale
 70
     0
300
1/16" = 1'-0"
140
0.0625
141
12.0
290
     0
  0
SCALE
  5
5D
102
{ACAD_REACTORS
330
47
102
}
330
47
100
AcDbScale
 70
     0
300
3/32" = 1'-0"
140
0.09375
141
12.0
290
     0
  0
SCALE
  5
5E
102
{ACAD_REACTORS
330
47
102
}
330
47
100
AcDbScale
 70
     0
300
1/8" = 1'-0"
140
0.125
141
12.0
290
     0
  0
SCALE
  5
5F
102
{ACAD_REACTORS
330
47
102
}
330
47
100
AcDbScale
 70
     0
300
3/16" = 1'-0"
140
0.1875
141
12.0
290
     0
  0
SCALE
  5
60
102
{ACAD_REACTORS
330
47
102
}
330
47
100
AcDbScale
 70
     0
300
1/4" = 1'-0"
140
0.25
141
12.0
290
     0
  0
SCALE
  5
61
102
{ACAD_REACTORS
330
47
102
}
330
47
100
AcDbScale
 70
     0
300
3/8" = 1'-0"
140
0.375
141
12.0
290
     0
  0
SCALE
  5
62
102
{ACAD_REACTORS
330
47
102
}
330
47
100
AcDbScale
 70
     0
300
1/2" = 1'-0"
140
0.5
141
12.0
290
     0
  0
SCALE
  5
63
102
{ACAD_REACTORS
330
47
102
}
330
47
100
AcDbScale
 70
     0
300
3/4" = 1'-0"
140
0.75
141
12.0
290
     0
  0
SCALE
  5
64
102
{ACAD_REACTORS
330
47
102
}
330
47
100
AcDbScale
 70
     0
300
1" = 1'-0"
140
1.0
141
12.0
290
     0
  0
SCALE
  5
65
102
{ACAD_REACTORS
330
47
102
}
330
47
100
AcDbScale
 70
     0
300
1-1/2" = 1'-0"
140
1.5
141
12.0
290
     0
  0
SCALE
  5
66
102
{ACAD_REACTORS
330
47
102
}
330
47
100
AcDbScale
 70
     0
300
3" = 1'-0"
140
3.0
141
12.0
290
     0
  0
SCALE
  5
67
102
{ACAD_REACTORS
330
47
102
}
330
47
100
AcDbScale
 70
     0
300
6" = 1'-0"
140
6.0
141
12.0
290
     0
  0
SCALE
  5
68
102
{ACAD_REACTORS
330
47
102
}
330
47
100
AcDbScale
 70
     0
300
1'-0" = 1'-0"
140
12.0
141
12.0
290
     0
  0
ENDSEC
  0
EOF
